Give Kudos?
Are you sure you want to give kudos to WildCard76?

Add To Songbook?
Are you sure you want to add this song to your songbook?


3,369 bands | 16,001 songs
Search: Register FREE! | Login
Browse Songs:
Browse Bands:
Tool Panel
Discuss This Song

1 2 3 4 5





Jimmy Buffett - Everybody's Got A Cousin In Miami (Solo)
Album: Fruitcakes (1994)
Submitter: WildCard76 (292) on 6/9/03
Month Views: 74 | Total Views: 5,746
Moderator: guntemar | Report This Song?
Song Tools

Comment

Songbook

Kudos

Show Chords

Print

EVERYBODY'S GOT A COUSIN IN MIAMI
Jimmy Buffett


Solo
(this is played twice)

E-----------------3-----------------------------6------3-5-6--3-----3-----
B---6---6--4---4-----6-----4-4--------6--4--3--6---------------4--6----4--
G------------------------------5--5-5-------------------------------------
D-------------------------------------------------------------------------
A-------------------------------------------------------------------------
E-------------------------------------------------------------------------

E-5-3-------3-----------------------------------------------6--6--3-5-6-3-
B-----6-4----6--4-3--6-4--3---4-3------3---------------3-6----------------
G------------------------------5------5-3---5-3---5---3-------------------
D------------------------------------------------7------------------------
A-------------------------------------------------------------------------
E-------------------------------------------------------------------------

E-------3----------------
B------------------------
G--4--6----4-------------
D------------------------
A------------------------
E------------------------
 Comments (click here to add a non-facebook comment)
Home | FAQs | Privacy | Terms | Contact
Top 100 Tab Sites