Give Kudos?
Are you sure you want to give kudos to cletus?

Add To Songbook?
Are you sure you want to add this song to your songbook?


3,430 bands | 16,491 songs
Search: Register FREE! | Login
Browse Songs:
Browse Bands:
Tool Panel
Discuss This Song

1 2 3 4 5



Jimmy Buffett - Brown Eyed Girl (Lead)
Album: One Particular Harbour (1983)
Submitter: cletus (1) on 2/28/03 6 comments
Month Views: 30 | Total Views: 17,587
Sound Byte: Listen
Moderator: guntemar | Report This Song?
Song Tools

Comment

Songbook

Kudos

Show Chords

Print

 h= hammer on          po= pull off
  b= bend              brh= bend release hold
 br= bend & release      x= muted click   
/ \= slide up or dn

      Intro & Lead : Brown Eyed Girl  Key= G 

--7--8---10--8---7--12--13--15--13--12--------------------
--8--10--12--10--8--13--15--17--15--13--------------------
----------------------------------------------------------
----------------------------------------------------------
----------------------------------------------------------
----------------------------------------------------------

--7--8---10--8----------------repeat x 2--3---------------
--8--10--12--10---10-------7--------------0---------------
----------------------7--9----------------0---------------
------------------------------------------0---------------
------------------------------------------2---------------
------------------------------------------3---------------

 Comments (click here to add a non-facebook comment)
True the song is origionally by Van Morrisson, the song was covered by Buffett, so thats how some people know it, so cut the gus some slack loser.
-JLStotler | 8/10/2004
Free members---ya gotta love 'em.
-cletus | 8/22/2004
What's with the "jackass" comment?! What an ignorant git you are. To the guy that posted the tab --- keep tabbing, mate... from Oz.
-beechk | 12/18/2004
A man walks into a bar ...
'Ouch'
-ken29 | 2/9/2005
The tab is great. Keep it Up--!!!
-hartcv80 | 2/15/2005
Great tab for Jimmy Buffett's wonderful version af Brown Eyed Girl!!!
-LaasbyGuitarImp | 4/7/2005
Home | FAQs | Privacy | Terms | Contact
Top 100 Tab Sites