Give Kudos?
Are you sure you want to give kudos to WildCard76?

Add To Songbook?
Are you sure you want to add this song to your songbook?


3,380 bands | 16,095 songs
Search: Register FREE! | Login
Browse Songs:
Browse Bands:
Tool Panel
Discuss This Song

1 2 3 4 5





Jimmy Buffett - A Pirate Looks At Forty (Solo)
Album: A1A (1974)
Submitter: WildCard76 (239) on 1/19/03
Month Views: 26 | Total Views: 10,917
Moderator: guntemar | Report This Song?
Song Tools

Comment

Songbook

Kudos

Show Chords

Print

I don't know if you'd call this an INTERLUDE or a SOLO....it's done with an
acoustic guitar and a harmonica.....this is how I play it in the clubs......





E---3----3-----5--7------3-3-3--5-7------5------5-------5--------------------
B------------------------------------------5------5---5---5---5--------------
G-----4----4---5--7------4-4-4--5-7----------5------5-------5---5--7--5--0---
D----------------------------------------------------------------------------
A----------------------------------------------------------------------------
E----------------------------------------------------------------------------


E---------------------2---------3--3-------
B---------------0h1---3---------3----3-----
G--------------2------2----0h2--0------0---
D-------------2-------0---------0--------0-
A--3-2br--0---------------------2----------
E-------------------------------3----------
 Comments (click here to add a non-facebook comment)
Home | FAQs | Privacy | Terms | Contact
Top 100 Tab Sites