Give Kudos?
Are you sure you want to give kudos to aussief?

Add To Songbook?
Are you sure you want to add this song to your songbook?


3,420 bands | 16,455 songs
Search: Register FREE! | Login
Browse Songs:
Browse Bands:
Tool Panel
Discuss This Song

1 2 3 4 5



Jimi Hendrix - Voodoo Chile ( Slight Return) (Tab)
Album: Electric Ladyland (1968)
Submitter: aussief (75) on 6/5/09 3 comments
Month Views: 51 | Total Views: 77,705
Moderator: jackshaw3 | Report This Song?
Song Tools

Comment

Songbook

Kudos

Show Chords

Print

Words and Music by Jimi Hendrix

INTRO
    no chords
E|--------------|--------------|---------------|-----------|
B|--------------|--------------|---------------|-----------|
G|-9---------7--|--------------|-9----------9--|--9-7------|PLAY THESE 4 BARS
D|----7---9-----|----------7---|----9---9------|-----------|3 TIMES THEN PLAY
A|--------------|-10--10-------|---------------|-----------|
E|--------------|--------------|---------------|-----------|

E|--------------|--------------|---------------|--------------|
B|--------------|--------------|---------------|-12-----12----|
G|-9---------7--|--------------|-9----------9--|--------------|
D|----7---9-----|----------7---|----9---9------|--------------|
A|--------------|-10--10-------|---------------|--------------|
E|--------------|--------------|---------------|--------------|

AD-LIB SOME JIMI STYLE LEAD GUITAR

        E7
Well, I stand up next to a mountain
 E7
And I chop it down with the edge of my hand.
E7
Well, I stand up next to a mountain,
E7
Chop it down with the edge of my hand.
E7       B7
Well, I pick up all the pieces and make an island,
A7                             E7
Might even raise just a little sand.
E7          C              D
Cause Im a voodoo chile,
D                E7
Lord knows Im a voodoo chile, baby.

         E7
I didn't mean to take up all your sweet time,
E7
Ill give it right back to you one of these days.
E7
I said I didn't mean to take up all your sweet time,
E7
Ill give it right back one of these days.
E7        B7
And if I don't meet you no more in this world
A7                             E7
Then I'll meet you in the next one and don't be late, don't be late.
E7          C       D      C     D
Cause Im a voodoo chile, voodoo chile,
D                 E7
Lord knows Im a voodoo chile, hey hey hey.
       C      D
Im a voodoo chile, baby. 

Another F. K. Tab,, Enjoy!! 
 Comments (click here to add a non-facebook comment)
Nice try guy but this is not voodoo chile but voodoo child
-ehd55 | 2/4/2013
Yeah,you`re right,,this is Voodoo Child (Slight Return)
one of my early tabs,,didn`t bother to check the title
just tabbed what our lead player used to play....
-aussief | 2/5/2013
Don't matter what it's called..it's still
a damn good tab and I'm not a big
Hendrix fan. Figured it was just a typo..
because ALL of Aussief's tabs are excellent. KK.
-kraziekhat | 9/18/2013
Home | FAQs | Privacy | Terms | Contact
Top 100 Tab Sites