Give Kudos?
Are you sure you want to give kudos to aussief?

Add To Songbook?
Are you sure you want to add this song to your songbook?


3,420 bands | 16,455 songs
Search: Register FREE! | Login
Browse Songs:
Browse Bands:
Tool Panel
Discuss This Song

1 2 3 4 5



Jimi Hendrix - The Wind Cries Mary (Tab)
Album: Are You Experienced (1967)
Submitter: aussief (75) on 8/1/13 2 comments
Month Views: 7 | Total Views: 4,720
Moderator: jackshaw3 | Report This Song?
Song Tools

Comment

Songbook

Kudos

Show Chords

Print

   Words and Music by Jimi Hendrix
   Eb E F     Eb/G    E/G#   F/A         Eb E F     Eb/G   E/G#     F/A
E|----------|---------------------------|---------|----------------------------|
B|----------|---------------------------|---------|----------------------------|
G|-8-9-10---|-8-------9------10---------|-8-9-10--|-8-------9------10----------|
D|-8-9-10---|-8-------9------10---------|-8-9-10--|-8-------9------10----------|
A|-6-7-8----|-7-h-10--8-h-11--9-h-12----|-6-7-8---|-7-h-10--8-h-11--9-h-12-----|
E|-6-7-8----|---------------------------|-6-7-8---|----------------------------|

   F
E|-------------------------------|
B|-------------------------------|
G|-------------------------------|
D|--------------10-12-10---------|
A|-----10-h-12-------------12----|
E|-13----------------------------|

C              Bb                F
After all the jacks are in their boxes,
         C          Bb          F
and the clowns have all gone to bed,
         C              Bb            F
you can hear happiness staggering on down the street,
G           Bb        Eb     E  F
footprints dressed in red.
         G    Bb       Eb   E  F   Eb  E  F
And the wind whispers Mary.


C           Bb       F
A broom is drearily sweeping
         C                Bb         F
up the broken pieces of yesterday's life.
C            Bb       F
Somewhere a Queen is weeping,
 G          Bb           Eb   E  F
somewhere a King has no wife.
         G        Bb   Eb    E  F    Eb  E  F
And the wind it cries Mary.

   F            Eb                    Bb                           Ab
E|----------13----------------------|-------------------------------------------|
B|-----13-h-15-----13-13-13------13-|-------------------------------------------|
G|-----------------12-14-12------12-|-12-s-14-r-12------------------------------|
D|---------------------------15-----|---------------15-------15-17-15-h-17-r-15-|
A|----------------------------------|------------------s-17---------------------|
E|----------------------------------|-------------------------------------------|

   F          Eb                      Bb                          Ab
E|--------13------------------------|-------------------------------------------|
B|---13-h-15-----13-13-13------13---|-------------------------------------------|
G|---------------12-14-12------12---|-------------------------------------------|
D|-------------------------15-------|------15-s-17-15---15-s-17------------15---|
A|----------------------------------|-s-17------------------------15-s-17-------|
E|----------------------------------|-------------------------------------------|

   F          Eb                      Bb                          Ab
E|---------13----------------------|--------------------------------------------|
B|----13-h-15----13-13-13-------13-|--------------------------------------------|
G|---------------12-14-13-------12-|-12-s-14-r-12-------------------------------|
D|-------------------------15------|----------------15-------15-17-15-s-17-r-15-|
A|---------------------------------|-------------------s-17---------------------|
E|---------------------------------|--------------------------------------------|

   F           Eb                       Bb                            Ab
E|----------13------------------------|----------------------------------------|
B|-----13-h-15-----13-13-13------13---|----------------------------------------|
G|-----------------12-14-12------12---|----------------------------------------|
D|---------------------------15-------|--------15-s-17-------------------------|
A|------------------------------------|-s-17-------------15-s-17-----(17)------|
E|------------------------------------|----------------------------------------|

C                        Bb          F
The traffic lights they turn blue tomorrow
     C                    Bb         F
And shine their emptiness down on my bed,
          C           Bb     F
The tiny island sags downstream
               G                  Bb    Eb  E  F
'Cos the life that they lived is dead.
         G     Bb     Eb   E  F    Eb  E  F
And the wind screams Mary.

C              Bb    F
Will the wind ever remember
     C            Bb           F
The names it has blown in the past,
               C              Bb           F
And with this crutch, its old age and its wisdom
                   G        Bb      Eb    E  F
It whispers, "No, this will be the last."
         G    Bb    Eb   E  F      Eb  E  F    Eb   E   F
And The Wind Cries Mary. 


An F. K. Tab,,,,Enjoy!!!!!
 Comments (click here to add a non-facebook comment)
First time I've heard this one. Great job!! KK.
-kraziekhat | 8/2/2013
Excellent blues song...great detail fk...
-microsysinc | 8/4/2013
Home | FAQs | Privacy | Terms | Contact
Top 100 Tab Sites