Give Kudos?
Are you sure you want to give kudos to eric_steinmetz?

Add To Songbook?
Are you sure you want to add this song to your songbook?


3,434 bands | 16,528 songs
Search: Register FREE! | Login
Browse Songs:
Browse Bands:
Tool Panel
Discuss This Song

1 2 3 4 5



Jimi Hendrix - Red House (Chord)
Album: Smash Hits (1968)
Submitter: eric_steinmetz (8) on 9/7/03
Month Views: 6 | Total Views: 19,362
Moderator: jackshaw3 | Report This Song?
Song Tools

Comment

Songbook

Kudos

Show Chords

Print

Red House  by Jimi Hendrix

When Jimi played this song live, he used to change the intro to :
~~~~~~~~~~~~~~~~~~~~~~~~~~~~~~~~~~~~~~~~~~~~~~~~~~~~~~~~~~~~~~~~~~~~
-11-------11-------11-------11--------10------10------10------10-------11\-
----10-------10-------10-------10--------9-------9-------9-------9-----10\-
-------11-------11-------11-------11-------10------10------10------10--11\-
---------------------------------------------------------------------------
---------------------------------------------------------------------------
---------------------------------------------------------------------------

B 	  	  	  	   E 	 
There's a red house over yonder
E 	  	  	  	 B
That's where my baby stays
E 	  	  	  	   E 	 
Lord, there's a red house over yonder
E 	  	  	  	  	 B
Lord that's where my baby stays
F#7 	  	  	  	  	 E
I ain't been home to see my baby 
E 	  	  	  	  	 B 	 B-E-B-F# - B
In ninety nine and a one half days

Wait a minute something's wrong here
The key won't unlock this door
Wait a minute something's wrong here  
Lord have mercy this key wont unlock the door
I have a bad bad feelin’ 
That my baby don't live here no more

That's all right I still got my guitar look out 

Well, I might as well uh, go back over yonder
Way back among the hills - Yeah that's what I'm gonna do
Lord I might as well go back over yonder
Way back yonder across the hills
Even if my baby don't love me no more
Lord – (STOP)
I know her sister will

When Jimi played this song live, he used to change the intro to :
~~~~~~~~~~~~~~~~~~~~~~~~~~~~~~~~~~~~~~~~~~~~~~~~~~~~~~~~~~~~~~~~~~~~
-11-------11-------11-------11--------10------10------10------10-------11\-
----10-------10-------10-------10--------9-------9-------9-------9-----10\-
-------11-------11-------11-------11-------10------10------10------10--11\-
---------------------------------------------------------------------------
---------------------------------------------------------------------------
---------------------------------------------------------------------------
 
 Comments (click here to add a non-facebook comment)
Home | FAQs | Privacy | Terms | Contact
Top 100 Tab Sites