Give Kudos?
Are you sure you want to give kudos to matellmon?

Add To Songbook?
Are you sure you want to add this song to your songbook?


3,420 bands | 16,455 songs
Search: Register FREE! | Login
Browse Songs:
Browse Bands:
Tool Panel
Discuss This Song

1 2 3 4 5



Jim Croce - Time in a Bottle (Chord)
Submitter: matellmon (54) on 2/21/02 1 comment
Month Views: 26 | Total Views: 6,977
Moderator: scadet | Report This Song?
Song Tools

Comment

Songbook

Kudos

Show Chords

Print

VERSE:
------------------|-----------------|----------------|--------------|-------------
-10-------10------|-10------10------|-10---10---10---|-8-----8------|-8---5---6---
-------10------10-|------10------10-|----------------|-----7---7----|-------------
-----0-------0----|----0-------0----|----0----0----0-|---0-------0--|---0---0---0-
------------------|-----------------|----------------|--------------|-------------
-10---------------|-9---------------|-8--------------|-7------------|-6---6---6---

-------------|-------------|-12----10-----9s10s9--|-----------------
-8---6---5---|-2---3---5---|--------------9s10s9--|-10------10------
-------------|-------------|----12----10----------|------10----10---
---0---0---0-|---2---5---7-|----------------------|----0----------0-
-------------|-0---0---0---|-0------0-----0-------|-----------------
-6---5---3---|-------------|----------------------|-10--------------

-----------------|-------------|-3-----3-----|-------1-----|-3-----3-----
-10------10------|-8-----8-----|---3-----3---|-----3---3---|-------------
------10----10---|-----7---7---|-----3-----3-|---2-------0-|---3-----3---
----0----------0-|---8-------0-|-------------|-0-----------|-------------
-----------------|-------------|-------------|-------------|-------------
-8---------------|-6-----------|-3-----------|-------------|-3-----------
                              CHORUS:
-------------|---------------| ---------10-------|---------9------|-------1-----
-2---3---5---|-2h3p2-0-------| ------10----10----|------10---10---|-----2---2---
-----3-----0-|-----------2---| ---11----------11-|---11--------11-|---3-------3-
---2---5---7-|---------0---0-| -0----------------|-0--------------|-0-----------
-0---0---0---|-0-------------| ------------------|----------------|-------------
-------------|---------------| ------------------|----------------|-------------

-------5-----|-----0-------|-----0-------|-----0-------|----------------
-----7---7---|---------0---|---------0---|---------0---|----------------
---7-------7-|---7---7---7-|---7---7---7-|---7---7---0-|-6---7---9------
-0-----------|-9-----------|-7-----------|-5-----------|---7---9---11---
-------------|-------------|-------------|-------------|-0---0---0------
-------------|-------------|-------------|-------------|----------------


        
 
   Intro
E----10--10--10--9--9--9--8--8--8-7-7-7-6-6-6-6-6--5-7-9-12-10-9
H--10--10--10--10-10-10-10-10-10-8-8-8-8-5-6-8-6-5--------------
G--------------------------------------------------6-7-9-12-10-9
D---------------------------------------------------------------
A---------------------------------------------------------------
E---------------------------------------------------------------
     Bridge 1            |  Bridge 2                |  Bridge 3
E--6-5-3-5-7-9-12-10-9---|--5--7--9--5~6--5--3--0---|-----------
H------------------------|--------------------------|--2--3--5--
G--7-6-3-6-7-9-12-10-9---|--6--7--9-------6--3--2---|-----------
D------------------------|--------------------------|-----------
A------------------------|--------------------------|--0--2--4--
E------------------------|--------------------------|-----------
 

Verse 1
  Dm       Dm*        Dm7     G# 
If I could save time in a bottle  
    G*               Bridge 1
The first thing that I'd like to do 
  Dm       Dm7       G#            G~     Dm#
Is to save every day 'til eternity passes away 
        G~           Bridge 2
Just to spend them with you.
 
Verse 2
 

If I could make days last forever,
If words could make wishes come true
I'd save every day like a treasure and then again
I would spend them with you.

 
Chorus
          D#             D*          
But there never seems to be enough time 
   B#                  D                 **     ##  ~~ Bridge 3
To do the things you want to do once you find them.
I've looked around enough to know that 
your the one I want to go through time with.
 

Intro
 

Verse 3
 

If I had a box just for wishes 
and dreams that had never come true.
The box would be empty except for the memory of
how they were answered by you.
 
Chorus
 

Ending
----0----0---10----10---0-----0---10----10---0-----0---10----10--0--
------6----6----10--------6-----6----10--------6-----6----10-----6--
-------7--------------------7--------------------7---------------7--
--0-------------------0--------------------0---------------------0--
--------------------------------------------------------------------
--------------------------------------------------------------------
 
 
 Comments (click here to add a non-facebook comment)
what chord is Dm* and G*
-jaimetomaz | 9/1/2005
Home | FAQs | Privacy | Terms | Contact
Top 100 Tab Sites