Give Kudos?
Are you sure you want to give kudos to Deleted Member?

Add To Songbook?
Are you sure you want to add this song to your songbook?


3,392 bands | 16,219 songs
Search: Register FREE! | Login
Browse Songs:
Browse Bands:
Tool Panel
Discuss This Song

1 2 3 4 5





Jim Croce - I'll Have to Say I Love You (Intro)
Submitter: Deleted Member (0) on 2/3/02 1 comment
Month Views: 3 | Total Views: 3,296
Moderator: scadet | Report This Song?
Song Tools

Comment

Songbook

Kudos

Show Chords

Print

                        I'll Have To Say I Love You in a Song (Intro and Pattern)
Jim Croce


Intro

   A                 C#m               Bm              
E-----------------|---------4-------|-----------------|
B-----2-----2-----|-----5-----5-----|-----3-----3-----|
G---2-----2-----2-|---6---------6---|---4-----4-------|
D-----------------|-------6---------|-------4---------|
A-0-----------0---|-4---------------|-2-----------2///|
E-------0---------|-----------------|-----------------|


 Dm       E	   A                 C#m             
E-------5---------|-----------------|---------4-------|
B-----6-------9---|-----2-----2-----|-----5-----5-----|
G---7-------9-----|---2-----2-----2-|---6---------6---|
D-----------------|-----------------|-------6---------|
A/5-------7-------|-0-----------0---|-4---------------|
E-----------------|-------0---------|-----------------|


     Bm                Dm      E
E-----------------|-------5---------|
B-----3-----3-----|-----6-------9---|
G---4-----4-------|---7-------9-----|
D-------4---------|-----------------|
A-2-----------2///|/5-------7-------|
E-----------------|-----------------|



     I know it's kinda late              I hope I didn't 
   A                 C#m               Bm             

E-----------------|-----------------|-----------------|
B-----2-----2-----|-----5-----5-----|-----3-----3-----|
G---2-----2-----2-|---6-----6-----6-|---4-----4-----4-|
D-----------------|-------6---------|-------4---------|
A-0-----------0---|-4-----------4---|-2-----------2---|
E-------0---------|-----------------|-----------------|

wake you    but what I  gotta say can't wait              
   E       D   E      A                 C#m             
E-----0---2---4---|-----------------|-----------------|
B-------0---------|-----2-----2-----|-----5-----5-----|
G---1-----2---4---|---2-----2-----2-|---6-----6-----6-|
D-----------------|-----------------|-------6---------|
A-----------------|-0-----------0---|-4-----------4---|
E-0---------------|-------0---------|-----------------|

       I knew you'd understand
  Bm                E       D   E
E-----------------|-----0---2---4---|
B-----3-----3-----|-------0---------|
G---4-----4-----4-|---1-----2---4---|
D-------4---------|-----------------|
A-2-----------2---|-----------------|
E-----------------|-0---------------|



D               D#
   Every time I tried to tell you
    C#m                 A     D
The words just came out wrong
        A             E             D
So I'll have to say I love you in a song


(That should do.)
 Comments (click here to add a non-facebook comment)
instead of A use Amaj7
-buckb21 | 4/9/2003
Home | FAQs | Privacy | Terms | Contact
Top 100 Tab Sites