Give Kudos?
Are you sure you want to give kudos to 2tallhughes?

Add To Songbook?
Are you sure you want to add this song to your songbook?


3,422 bands | 16,457 songs
Search: Register FREE! | Login
Browse Songs:
Browse Bands:
Tool Panel
Discuss This Song

1 2 3 4 5



Jesse McCartney - Beautiful Soul (complete) (Tab)
Submitter: 2tallhughes (0) on 1/31/05 3 comments
Month Views: 9 | Total Views: 3,513
Help! We need a moderator for this artist. | Report This Song?
Song Tools

Comment

Songbook

Kudos

Show Chords

Print

Jesse McCartney  Beautiful Soul
Tabbed by Cody Hughes


Standard tuning
Chords used:
A(bar)  A  G#dim  D  
5       0    x    0
5       2    x    3
6       2    4    2
7       2    6    0
7       0    5    x
5       x    4    x


Intro/Chorus
      A(bar)    G#dim     A       D
E--|--------------x---|------0----0---|
B--|---------6----x---|-----------3---|
G--|--------------4---|-----2-----2---|
D--|-------7------6---|----2------0---|
A--|-----7--------5---|---0-------x---|
E--|---5----------4---|-----------x---|

      A(bar)    G#dim     A         D
E--|--------------x---|-----------------|
B--|---------6----x---|-----------------|
G--|--------------4---|-----2----2------|
D--|-------7------6---|----2----2-------|
A--|-----7--------5---|---0----4----5---|
E--|---5----------4---|-----------------|


Verse

      A  G#dim  A     A    D  G#dim
E--|---------------|--------0-------|
B--|---------------|----------------|
G--|--6----4----6--|--6----2----4---|
D--|--7----6----7--|--7---0-----6---|
A--|--7----5----7--|--7---------5---|
E--|--5----4----5--|--5---------4---|


Bridge
    
E--|--------------------|-------------------|
B--|--------------------|-------------------|
G--|--------------------|-------------------|
D--|--------------------|--------------7----|
A--|--7h9-9-x-7h9-9-----|--7h9-9-x-7h9---9--|
E--|----------------~7~-|-------------------|
                    Bend

E--|--------------------|-------------------|
B--|--------------------|-------------------|
G--|--------------------|-------------------|
D--|--------------------|-------------------|
A--|--7h9-9-x-7h9-9-----|---9---------------|
E--|----------------~7~-|-----9-10----------|
                    Bend

Thats it, leave a comment if you want, and please rate this tab.
 Comments (click here to add a non-facebook comment)
yea u got the nerve to make my rate my tab a 2?? w.e. just look at the views man
-guitarmbfreek | 2/27/2005
very good
-savage64429 | 2/28/2005
hey guitarmbfreek, its nothing personal. I just
don't think your tab is accurate. I'm not trying
to compete with anybody...
-2tallhughes | 2/28/2005
Home | FAQs | Privacy | Terms | Contact
Top 100 Tab Sites