Give Kudos?
Are you sure you want to give kudos to aussief?

Add To Songbook?
Are you sure you want to add this song to your songbook?


3,420 bands | 16,455 songs
Search: Register FREE! | Login
Browse Songs:
Browse Bands:
Tool Panel
Discuss This Song

1 2 3 4 5



Jerry Butler - Moon River (Tab)
Submitter: aussief (82) on 6/29/19
Month Views: 35 | Total Views: 315
Help! We need a moderator for this artist. | Report This Song?
Song Tools

Comment

Songbook

Kudos

Show Chords

Print

  Words and Music by Johnny Mercer and Henry Mancini
INTRO
   C
E|--------------|---------------|------------|-------------|
B|--------------|---------------|------------|-------------|
G|--------------|---------------|------------|-------------|
D|--------------|---------------|----------5-|-------------|
A|-7----------5-|-7-----------5-|-7--7-77----|-7--5-h-7----|
E|----8--5--8---|----8--5--8----|------------|-----------8-|

C    Am     F            C
Moon river, wider than a mile
      F               C         Bm7   E7
 I'm crossing you in style some day
      Am    C7         F      Bb9
 Oh, dream maker, you heart breaker
     Am         F#m7 B7    Em7 A7      Dm7  G7
 Wherever you're goin', I'm goin' your way

C    Am       F               C
Two drifters, off to see the world
          F             C       Bm7  E7
 There's such a lot of world to see
       Am        F#m7  F13      C     F                  C
 We're after the same rainbow's end, waitin' 'round the bend
 F               C       Am  Dm7 G7      C
 My huckleberry friend, Moon River, and me

(Repeat Intro then play this)

    C   Am      F            C      F                G         Bm7   E7
E|----|-------|------------|----------|------------|---------|---------|
B|----|--3--1-|-0----------|--------0-|------------|---------|---------|
G|--0-|-------|----2--0----|-0--------|---2--0-----|-0-------|---------|
D|----|-------|----------3-|----------|----------3-|---------|--0------|
A|----|-------|------------|-----3----|------------|------3--|---------|
E|----|-------|------------|----------|------------|---------|---------|

C     Am     F            C
Moon river, wider than a mile
      F               C         Bm7  E7
 I'm crossin' you in style some day
      Am    C7         F      Bb9
 Oh, dream maker, you heart breaker
    Am           F#m7 B7    Em7 A7     Dm7   G7
 Wherever you're goin', I'm goin' your way

C     Am       F               C
Two drifters, off to see the world
          F             C       Bm7  E7
 There's such a lot of world to see
        Am        F#m7   F13      C     F                 C
 We're after that same rainbow's end, waitin' 'round the bend
 F               C       Am  Dm7 G7    C
 My huckleberry friend, Moon River and me----

REPEAT INTRO
An F. K. Tab,,,,Enjoy!!!!!
 Comments (click here to add a non-facebook comment)
Home | FAQs | Privacy | Terms | Contact
Top 100 Tab Sites