Give Kudos?
Are you sure you want to give kudos to eric_steinmetz?

Add To Songbook?
Are you sure you want to add this song to your songbook?


3,434 bands | 16,528 songs
Search: Register FREE! | Login
Browse Songs:
Browse Bands:
Tool Panel
Discuss This Song

1 2 3 4 5



James Taylor - September Grass (Tab)
Submitter: eric_steinmetz (8) on 9/5/03 1 comment
Month Views: 6 | Total Views: 13,442
Moderator: acebaker | Report This Song?
Song Tools

Comment

Songbook

Kudos

Show Chords

Print

SEPTEMBER GRASS - JAMES TAYLOR
Tab for:  pre-chorus, chorus and bridge, lyrics follow.
Capo 2nd fret

                       INTRO

E||-------------------|----------------------|---------------------|
B||-------------------|-----3----2-----------|-----0----2----------|
G||-------------------|-----2----2-----------|-----1----2----------|
D||----------------0--|--2--4----2-----------|--2--2----2----------|
A||-------------------|-------------------0--|---------------------|
E||-------------------|----------------------|---------------------|



-----2-----0------------|----------------------|----------------------|
-----3-----2----2-------|-----2----0-----------|-----3----2-----------|
-----2----------2-------|-----2----1-----------|-----2----2-----------|
--0-----0---------------|--0-------2-----------|--2--4----2-----------|
---------------------2--|-------------------0--|-------------------0--|
------------------------|----------------------|----------------------|

                                                                   

---------------------|-----2----0------------|----------------------|
-----0----2----------|-----3----2----2-------|-----2----0-----------|
-----1----2----------|-----2---------2-------|-----2----1-----------|
--2--2----2----------|--0------------2-------|--0-------2-----------|
---------------------|--------------------2--|-------------------0--|
---------------------|-----------------------|----------0-----------|


  VERSE
-----------------------|----------------------|-----2-----0------------|
-----2-------0---------|-----3-------2--------|-----3-----2----2-------|
-----2-------1---------|-----2-------2--------|-----2----------2-------|
-----2-------2---------|-----4-------2--------|--0-----0---------------|
----------0---------0--|----------0-----------|---------------------2--|
-----------------------|----------------------|------------------------|


----------------------|-----------------------|----------------------|
-----2----0-----------|-----2-------0---------|-----3-------2--------|
-----2----1-----------|-----2-------1---------|-----2-------2--------|
--0-------2-----------|-----2-------2---------|-----4-------2--------|
-------------------0--|----------0---------0--|----------0-----------|
----------0-----------|-----------------------|----------------------|
                                                                    

-----2-----------------|----------------------|-----------------------|
-----3--------2--0-----|-----2----0-----------|-----2-------0---------|
--------------2-----2--|-----2----1-----------|-----2-------1---------|
--0--------------------|-----0----2-----------|-----2-------2---------|
-----------------------|--2----------------0--|--0-------0---------0--|
-----------------------|----------0-----------|-----------------------|


----------------------|-----2-----0------------|----------------------|
-----3-------2--------|-----3-----2----2-------|-----2----0-----------|
-----2-------2--------|-----2----------2-------|-----2----1-----------|
-----4-------2--------|--0-----0---------------|--0-------2-----------|
----------0-----------|---------------------2--|-------------------0--|
----------------------|------------------------|----------0-----------|


-----------------------|----------------------|-----2-----------------|
-----2-------0---------|-----3-------2--------|-----3--------2--0-----|
-----2-------1---------|-----2-------2--------|--------------2-----2--|
-----2-------2---------|-----4-------2--------|--0--------------------|
--0-------0---------0--|--0-------0-----------|-----------------------|
-----------------------|----------------------|-----------------------|


                      PRE-CHORUS
---------------------|-----------0------------|--------0------------|
-----2----0----------|--------2---------------|--------5------------|
-----2----1----------|-----2------------------|-----4---------------|
-----0----2----------|------------------------|---------------------|
--2------------------|------------------------|---------------------|
----------0----------|--2------------------2/-|--4------------------|


                                                  CHORUS
------------------------|--------0----------0----|----------------------|
--------2----------2----|--------2----------2----|-----3----2-----------|
--------2----------2----|-----2----------2-------|-----2----2-----------|
-----2----------2-------|--0---------------------|--2--4----2-----------|
--0----------4----------|------------------------|-------------------0--|
------------------------|-------------0----------|----------------------|
                                                                      

---------------------|-----2-----0------------|----------------------|
-----0----2----------|-----3-----2----2-------|-----2----0-----------|
-----1----2----------|-----2----------2-------|-----2----1-----------|
--2--2----2----------|--0-----0---------------|--0-------2-----------|
---------------------|---------------------2--|-------------------0--|
---------------------|------------------------|----------0-----------|
                                                                     

----------------------|---------------------|-----2----0------------|
-----3----2-----------|-----0----2----------|-----3----2----2-------|
-----2----2-----------|-----1----2----------|-----2---------2-------|
--2--4----2-----------|--2--2----2----------|--0------------2-------|
-------------------0--|---------------------|--------------------2--|
----------------------|---------------------|-----------------------|


                      BRIDGE
---------------------|-----------0-----------|----------------------|
-----2----0----------|--------3--------------|----------------------|
-----2----1----------|-----2-----------------|----------------------|
--0-------2----------|--0--------------------|----------------------|
---------------------|-----------------------|-------------------2--|
----------0----------|-----------------------|---------0----2-------|


---------------0------|----------------------|--------------------------|
--------3-------------|----------------------|--------3-----------2-----|
-----2----------------|----------------------|-----2-----------2--------|
--0-------------------|----------------------|--0-----------2--------0--|
----------------------|-------------------2--|-----------4--------------|
----------------------|---------0----2-------|--------------------------|


                                                   2/4 BAR
--------0-----------------|--5---------------5----|--5--------||
-----3--------------3-----|---------------3-------|-----------||
--2--------------------4--|------------4----------|-----------||
-----------------5--------|-----------------------|-----------||
--------------------------|-----------------------|-----------||
-----------0--------------|---------0-------------|-----------||


Well, the sun's not so hot in the sky today
And you know I can see summertime slipping on away
A few more geese are gone, a few more leaves turning red
But the grass is as soft as a feather in a featherbed
So I'll be king and you'll be queen
Our kingdom's gonna be this little patch of green

Won't you lie down here right now
In this September grass
Won't you lie down with me now
September grass

Oh the memory is like the sweetest pain
Yeah, I kissed the girl at a football game
I can still smell the sweat and the grass stains
We walked home together. I was never the same.

But that was a long time ago
And where is she now? I don't know

Won't you lie down here right now
In this September grass
Won't you lie down with me now
September grass

Oh, September grass is the sweetest kind
It goes down easy like apple wine
H
 Comments (click here to add a non-facebook comment)
lol... look again... the song is played with
a capo on 1st fret. So playing F, the shape
is E. Retard. :-p
-axehappy | 7/30/2004
Home | FAQs | Privacy | Terms | Contact
Top 100 Tab Sites