Give Kudos?
Are you sure you want to give kudos to adevilsdevil?

Add To Songbook?
Are you sure you want to add this song to your songbook?


3,430 bands | 16,491 songs
Search: Register FREE! | Login
Browse Songs:
Browse Bands:
Tool Panel
Discuss This Song

1 2 3 4 5



Ian Moore - New Day (Chord)
Submitter: adevilsdevil (122) on 4/13/20
Month Views: 53 | Total Views: 79
Help! We need a moderator for this artist. | Report This Song?
Song Tools

Comment

Songbook

Kudos

Show Chords

Print

New Day
by: Ian Moore
    tabbed by:adevilsdevil666 at gmail.com

Tuning:  Standard

Intro:  C  F  C  F  C  F  G  C




    C            F       C
e :--------------------------------------------------------------------|
B :------------------1-----------1-------------------------------------|
G :----------------2---2-----0-----0-----------------------------------|
D :----0-2---0-2-3---------2---2---------------------------------------|
A :--3-----3-------------3---------------------------------------------|
E :--------------------------------------------------------------------|

Repeat 2 then

    C            F       C       G      C
e :--------------------------------------------------------3-----------|
B :------------------1-------------------------1---1---1---------------|
G :----------------2---2-----0---------0-----0---0---0---0-------------|
D :----0-2---0-2-3---------2---2-----0-----2---------------------------|
A :--3-----3-------------3---------2-----3-----------------------------|
E :------------------------------3-------------------------------------|


VERSE 1
C                   F   C
Every day is like a new day
C                          F       C
Sun has broken through the night's haze
C                        F   C
I drink my coffee from a big cup
C                      F   C   G   C
And I ain't ever gonna get up, get up.


VERSE 2
C                          F    C
If I was a writer well I'd lay around
C                      F         C
Smoking cigarettes and thinking about
    C                      F       C
The life I'd live if I was someone else
   C                       F    C     G    C
If love was lost and I was by myself, by myself

CHORUS
C                          F        C
But babe your love it is a mountain stream
C                              F      C
What's rough and rocky turns a valley green
C                            F    C
And just to love you baby is not enough
C                       F         C   G         C
Yeah honey I just wanna drink you up, drink you up
C                  F        C
Na na na na na na, na na na na
C                  F        C
Na na na na na na, na na na na
C                  F        C        G        C
Na na na na na na, na na na na na na na na na na

VERSE 3
C                       F         C
My head is heavy and my tongue is slow
C                        F       C
But I just wanna call to let you know
C                                  F      C
Your words weren't wasted baby I'm doing OK
C                       F   C    G   C
And every day is like a new day, new day
F   C    G   C
New day, New day
F   C    G   C    F   C    G                        F F/E F/D C C/B G C
New day, New day, New day, New oh oh oh oh oh oh oh day


The outro walkdown chords 

    F   F/E   F/D  C 	 C/B  G
    0    0    0    0    0    3
    1    1    1    1    1    3
    2    0    2    0    0    0
    3    2    0    2    0    0
    x    x    x    3    2    2
    x    x    x    x    x    3

     F     F/E        F/D     C       C/B     G     C
e :--------0-------0--------0-------------------------0----------------|
B :------1-------1--------1---------1-------1---------1----------------|
G :----2-------0--------2---------0-------0---------0-0----------------|
D :--3-------2--------0---------2-------2---------0---2----------------|
A :---------------------------3-------2---------2-----3----------------|
E :-------------------------------------------3------------------------| 
 Comments (click here to add a non-facebook comment)
Home | FAQs | Privacy | Terms | Contact
Top 100 Tab Sites