Give Kudos?
Are you sure you want to give kudos to Rondo Fondu?

Add To Songbook?
Are you sure you want to add this song to your songbook?


3,422 bands | 16,457 songs
Search: Register FREE! | Login
Browse Songs:
Browse Bands:
Tool Panel
Discuss This Song

1 2 3 4 5



Heart - Crazy On You For 5 String Bass (Bass)
Submitter: Rondo Fondu (14) on 5/6/04
Month Views: 15 | Total Views: 2,182
Moderator: EMRLDEYZS | Report This Song?
Song Tools

Comment

Songbook

Kudos

Show Chords

Print

Crazy On You (Bassline)
By Ann & Nancy Wilson


Gtr I (B E A D G) - 5 String Bass

 Free Time
  Q=150(8=s8)
 2/4    4/4          3/4        4/4
  Gtr I
  H      Wx9          H.         Wx5
|------|------------|---------||--------||
|------|------------|---------||--------||
|------|------------|---------||--------||
|------|------------|---------||--------||
|------|------------|---------||--------||


  Q=140        Q=90
              5/4           4/4
  Wx2          W        Q    Wx2
|------------|-------------|--------||
|------------|-------------|--------||
|------------|-------------|--------||
|------------|-------------|--------||
|------------|-------------|--------||


 Intro
  Moderate Rock Q=128
    Wx4        H..       E   +W           H..       E
|------------|-------------|------------|-------------|
|------------|-------------|------------|-------------|
|------------|-0-----------|------------|-0-----------|
|------------|-----------1-|-(1)--------|-----------1-|
|------------|-------------|------------|-------------|


  +W           H..       E   +Q.   H    E   +Q.   Q.   Q
|------------|-------------|--------------|---------------||
|------------|-------------|--------------|---------------||
|------------|-0-----------|--------------|---------------||
|-(1)--------|-----------3-|-(3)--------1-|-(1)--------3--||
|------------|-------------|--------------|---------------||


 Verse 1
  H.      Q     H    +E  q  E   Q.   Q E E E    Q.   E Q  Q
|-------------|---------------|---------------|--------------|
|-------------|---------------|---------------|--------------|
|-0-----------|---------------|---------------|--------------|
|---------5\--|----------0----|--------1------|-0------2--4--|
|-------------|-1----(1)----1-|-3----------3--|--------------|


  H.      Q     H    +E  q  E   Q.   Q  E E E   Q.   E Q  Q
|-------------|---------------|---------------|--------------||
|-------------|---------------|---------------|--------------||
|-0-----------|---------------|---------------|--------------||
|---------5\--|----------0----|---------1-----|-0------2--4--||
|-------------|-1----(1)----1-|-3-----------3-|--------------||


   Pre-Choruses 1, 2
    q  E q  E  Q    +W           q  E q  E  Q    +W
||----------------|------------|---------------|--------|
||o-----------/2--|-(2)--------|-----------/2--|-(2)----|
||--0----0--------|------------|-0----0--------|--------|
||o---------------|------------|---------------|--------|
||----------------|------------|---------------|--------|


  H    H      E E E E +Q   E E   Q  Q  E E E E   +Q.   Q.   Q
|-----------|------------------|---------------|------------1--||
|-0----2----|-----2-3-(3)--0---|-0--0--0---0-2-|-(2)---4-------||
|-----------|-3-2------------3-|---------3-----|---------------||
|-----------|------------------|---------------|---------------||
|-----------|------------------|---------------|---------------||


 Chorus
  Q  E E E E E E   +H.      Q    Q  E E E E E E   +H.      Q
|-2--------------|-------------|----------------|-------------|
|----2-0---------|-------------|----2-0---------|-------------|
|--------3-2-0---|-------------|-0------3-2-0---|-------------|
|--------------1-|-(1)------3--|--------------1-|-(1)------3--|
|----------------|-------------|----------------|-------------|


  Q  E E E E E E   +Q   E E E E E E   +Q   E E E E Q
|----------------|------------------|-----------------||
|----2-0---------|------2-0---------|------2-0--------||
|-0------3-2-0---|----------3-2-0---|----------3-2----||
|--------------3-|-(3)------------1-|-(1)----------3--||
|----------------|------------------|-----------------||


 Verse 2
  1.
  H.      Q     H    +E  q  E   Q.   Q E E E    Q.   E Q  Q
|-------------|---------------|---------------|--------------|
|-------------|---------------|---------------|--------------|
|-0-----------|---------------|---------------|--------------|
|---------5\--|----------0----|--------1------|-0------2--4--|
|-------------|-1----(1)----1-|-3----------3--|--------------|


  H.      Q     H    +E  q  E   Q.   Q  E E E   Q.   E Q  Q
|-------------|---------------|---------------|---------------||
|-------------|---------------|---------------|--------------o||
|-0-----------|---------------|---------------|---------------||
|---------5\--|----------0----|---------1-----|-0------2--4--o||
|-------------|-1----(1)----1-|-3-----------3-|---------------||


             Interlude 1
  2.
  W           H    +E  E E E   H    +E  E Q    Q  E E E E E E
|----------||----------------|---------------|----------------|
|----------||----------------|---------------|----------------|
|-0--------||----------------|----------0----|----2-3-0-2-0-2-|
|----------||-2----(2)---2---|---------------|----------------|
|----------||----------2---2-|-3----(3)------|----------------|


  H    +E  E E E   Q  E E E E E E   H    +E  E E E   Q  E E E E E E
|----------------|----------------|----------------|----------------|
|----------------|----------------|----------------|----------------|
|----------------|----2-3-0-2-0-2-|----------------|----2-3-0-2-0-2-|
|----------------|----------------|----------------|----------------|
|-3----(3)---3---|----------------|-3----(3)---3---|----------------|


  H    +E  E E E   H    +E  E E E   H    +E  E E E   H    +E  E E E
|----------------|----------------|----------------|----------------||
|----------------|----------------|----------------|----------------||
|----------------|----------------|-0----(0)---0---|-0----(0)---0---||
|-2----(2)---2---|----------------|----------------|----------------||
|----------------|-0----(0)---0---|----------------|----------------||


 Pre-Chorus 3
  W          W          W          H    +E  E Q
|----------|----------|----------|---------------||
|----------|----------|----------|---------------||
|----------|----------|----------|---------------||
|-0--------|-0--------|-0--------|-0----(0)---3--||
|----------|----------|----------|---------------||


 Chorus
  Q  E E E E E E   +H.      Q    Q  E E E E E E   +H.      Q
|----------------|-------------|----------------|-------------|
|----2-0---------|-------------|----2-0---------|-------------|
|-0------3-2-0---|-------------|-0------3-2-0---|-------------|
|--------------1-|-(1)------3--|--------------1-|-(1)------3--|
|----------------|-------------|----------------|-------------|


  Q  E E E E E E   +Q   E E E E E E   +Q   E E E E Q
|----------------|------------------|-----------------||
|----2-0---------|------2-0---------|------2-0--------||
|-0------3-2-0---|----------3-2-0---|----------3-2----||
|--------------3-|-(3)------------1-|-(1)----------3--||
|----------------|------------------|-----------------||


 Verse 3
  H.      Q     H    +E  q  E   Q.   Q  E E E   Q.   E Q  Q
|-------------|---------------|---------------|--------------|
|-------------|---------------|---------------|--------------|
|-0-----------|---------------|---------------|--------------|
|---------5\--|----------0----|---------1-----|-0------2--4--|
|-------------|-1----(1)----1-|-3-----------3-|--------------|


  H.      Q     H    +E  q  E   Q.   Q  E E E   Q.   E Q  Q
|-------------|---------------|---------------|--------------||
|-------------|---------------|---------------|--------------||
|-0-----------|---------------|---------------|--------------||
|---------5\--|----------0----|---------1-----|-0------2--4--||
|-------------|-1----(1)----1-|-3-----------3-|--------------||


 Chorus
  Q  E E E E E E   +H.      Q    Q  E E E E E E   +H.      Q
|----------------|-------------|----------------|-------------|
|----2-0---------|-------------|----2-0---------|-------------|
|-0------3-2-0---|-------------|-0------3-2-0---|-------------|
|--------------
 Comments (click here to add a non-facebook comment)
Home | FAQs | Privacy | Terms | Contact
Top 100 Tab Sites