Give Kudos?
Are you sure you want to give kudos to EMRLDEYZS?

Add To Songbook?
Are you sure you want to add this song to your songbook?


3,434 bands | 16,528 songs
Search: Register FREE! | Login
Browse Songs:
Browse Bands:
Tool Panel
Discuss This Song

1 2 3 4 5



Gordon Lightfoot - Wreck Of The Edmund Fitzgerald (Intro)
Submitter: EMRLDEYZS (41) on 3/19/06
Month Views: 3 | Total Views: 2,514
Moderator: 601deltabluesman | Report This Song?
Song Tools

Comment

Songbook

Kudos

Show Chords

Print

  Asus2            Em                     D                          Asus2
|--5-----5h7---5-|--0-----------------|---------------------------|----------------|
|--5-----5-----5-|--8s5-----5-5-----7-|--7b8======(7)-7r(7)-5-----|--5-------------|
|----------------|--------------------|-------------------------7-|----------------|
|----------------|--------------------|---------------------------|----------------|
|----------------|--------------------|---------------------------|----------------|
|----------------|--------------------|---------------------------|----------------|
|
| Gtr II
|--0-0-0-0-0-0-0-|------0---------0---|-------2-2--2--2-----2-2-2-|------0---------|
|--0-0-0-0-0-0-0-|----0-0-------0-0-0-|--3----3-3--3--3-----3-3-3-|--0-0-0-0-0-0-0-|
|--2-2-2-2-2-2-0-|--0-0-0-0---0-0-0-0-|--2----2-2--2--2-----2-2-2-|--2-2-2-2-2-2-2-|
|--2-2-2-2-2-2-0-|--2-2-2-2---2-2-2-0-|--0----0----0--0-----0---0-|--2-2-2-2-2-2-2-|
|--0-0-0-0-0-----|--2-2---2---2-2---0-|---------------------------|--0-0---0-0-0-0-|
|----------------|--0-0---0---0-0-----|---------------------------|----------------|
|
| Gtr III
|----------------|--------------------|---------------------------|-17-------------|
|----------------|-17-----------------|---------------------------|----------------|
|-14-------------|--------------------|-14------------------------|----------------|
|----------------|--------------------|---------------------------|----------------|
|----------------|--------------------|---------------------------|----------------|
|----------------|--------------------|---------------------------|----------------|



   Asus                D                           Asus2                      A Asus2
   ~~~                                                    \0.5/          \0.5/
|-------------------|---------------5---------|-------------------------|----------------------------||
|-(5)---------------|--5b7======(5)---5r(5)-3-|--5-(5)-----(5)----------|-(5)------------------------||
|-------------------|-------------------------|-----2------(2)----------|-(2)------------------------||
|-------------------|-------------------------|-------------------------|----------------------------||
|-------------------|-------------------------|-------------------------|----------------------------||
|-------------------|-------------------------|-------------------------|----------------------------||
|
|-------0---0-------|-------2-2----------2----|--------0------------0---|----------0---0-----0---0---||
|--0--0-0-0-0-0-0-0-|--3----3-3--3--3-3--3--0-|--0--0--0----0-----0-0-0-|--0-----0-0-0-0-2-0-0-0-0---||
|--2--2-2-2-2-2-2-0-|--2----2-2--2--2-2--2--0-|--2--2--2-2--2-----2-2-2-|--2-----2-2-2-2-2-2-2-2-2---||
|--2--2-2-2-2-2-2-0-|--0----0-0--0--0-0--0--0-|--2--2--2-2--2-----2-2-2-|--2-----2-2-2-2-2-2-2-2-2---||
|--0--0---0---0-0-0-|-------------------------|--0--0----0--0-----0---0-|--0-----0---0---0-0---0-----||
|-------------------|-------------------------|-------------------------|----------------------------||
|
|-------------------|-------------------------|-------------------------|----------------------------||
|-17----------------|-15----------------------|-------------------------|----------------------------||
|-------------------|-------------------------|-14----------------------|----------------------------||
|-------------------|-------------------------|-------------------------|----------------------------||
|-------------------|-------------------------|-------------------------|----------------------------||
|-------------------|-------------------------|-------------------------|----------------------------||
 Comments (click here to add a non-facebook comment)
Home | FAQs | Privacy | Terms | Contact
Top 100 Tab Sites