Give Kudos?
Are you sure you want to give kudos to EMRLDEYZS?

Add To Songbook?
Are you sure you want to add this song to your songbook?


3,420 bands | 16,457 songs
Search: Register FREE! | Login
Browse Songs:
Browse Bands:
Tool Panel
Discuss This Song

1 2 3 4 5



Goo Goo Dolls - Acoustic #3 (Tab)
Submitter: EMRLDEYZS (89) on 11/23/04 1 comment
Month Views: 7 | Total Views: 4,122
Moderator: Derrick_koehler | Report This Song?
Song Tools

Comment

Songbook

Kudos

Show Chords

Print

INTRO:


  G     Csus2       G     Csus2       G     Csus2

  Gtr I
|-----------------|-----------------|-----------------|
|-----------------|-----------------|-----------------|
|-----0-----0-----|-----0-----0-----|-----0-----0-----|
|---------0---0---|---------0---0---|---------0---0---|
|---2---3-------2-|---2---3-------2-|---2---3-------2-|
|-3---------------|-3---------------|-3---------------|


VERSES:

  G     Csus2        G     Csus2       G     Csus2
|-----------------||-----------------|-----------------|
|-----------------||-----------------|-----------------|
|-----------0-----||-----------0-----|-----------0-----|
|-----0---0---0---||-----0---0---0---|-----0---0---0---|
|---2---3-------2-||---2---3-------2-|---2---3-------2-|
|-3---------------||-3---------------|-3---------------|


  G     Csus2       G     Csus2       G     Csus2
|-----------------|-----------------|-----------------|
|-----------------|-----------------|-----------------|
|-----------0-----|-----0-----0-----|-----------0-----|
|-----0---0---0---|---------0---0---|-----0---0---0---|
|---2---3-------2-|---2---3-------2-|---2---3-------2-|
|-3---------------|-3---------------|-3---------------|


  G     Csus2       G     Csus2       G     Csus2
|-----------------|-----------------|------------------||
|-----------------|-----------------|------------------||
|-----------0-----|-----------0-----|-----0-----0------||
|-----0---0---0---|-----0---0---0---|---------0---0----||
|---2---3-------2-|---2---3-------2-|---2---3-------/5-||
|-3---------------|-3---------------|-3----------------||


 CHORUS:
  D5    Em          C5    G5          D5    Em
|-----------------|-----------------|-----------------|
|-----------------|-----------------|-----------------|
|-----0-----0-----|-----0-----0-----|-----0-----0-----|
|---7-----5---5---|---5-----0---0---|---7-----5---5---|
|-5-----7-------7-|-3-------------0-|-5-----7-------7-|
|-----------------|-------3---------|-----------------|


  C5    G5          D5    Em          C5    G5
|-----------------|-----------------|----------------|
|-----------------|-----------------|----------------|
|-----0-----0-----|-----0-----0-----|-----0-----0----|
|---5-----0---0---|---7-----5---5---|---5-----0---0--|
|-3-------------0-|-5-----7-------7-|-3--------------|
|-------3---------|-----------------|-------3--------|


INTERLUDE


  G     Csus2       G     Csus2        G    Csus2
|-----------------|-----------------||----------------|
|-----------------|-----------------||----------------|
|-----0-----0-----|-----0-----0-----||----0-----0-----|
|---------0---0---|---------0---0---||--------0---0---|
|---2---3-------2-|---2---3-------2-||------3-------2-|
|-3---------------|-3---------------||-3--------------|

VERSE 2:


CHORUS:
  D5    Em          C5    G           D5    Em          C5    G
|-----------------|-----------------|-----------------|-----------------|
|-----------------|-----------------|-----------------|-----------------|
|-----0-----0-----|-----0-----0-----|-----0-----0-----|-----0-----0-----|
|---7-----5---5---|---5-----0---0---|---7-----5---5---|---5-----0---0---|
|-5-----7-------7-|-3-------------0-|-5-----7-------7-|-3-------------0-|
|-----------------|-------3---------|-----------------|-------3---------|


  D5    Em          C5    G5         G     Csus2       G     Csus2
|-----------------|----------------|-----------------|-----------------|
|-----------------|----------------|-----------------|-----------------|
|-----0-----0-----|-----0-----0----|-----0-----0-----|-----0-----0-----|
|---7-----5---5---|---5-----0---0--|---------0---0---|---------0---0---|
|-5-----7-------7-|-3--------------|---2---3-------2-|---2---3-------2-|
|-----------------|-------3--------|-3---------------|-3---------------|


  1.
  G     Csus2       G     Csus2
|-----------------|------------------||
|-----------------|-----------------o||
|-----0-----0-----|-----0-----0------||
|---------0---0---|---------0---0----||
|---2---3-------3-|---2---3-------2-o||
|-3---------------|-3----------------||


  2.
  G     Csus2       G     Csus2
|-----------------|-----------------|-^3----*|
|-----------------|-----------------|-^3----*|
|-----0-----0-----|-----0-----0-----|-^0----*|
|---------0---0---|---------0---0-0-|-^0----*|
|---2---3-------2-|---2---3---------|-^x----*|
|-3---------------|-3---------------|-^3----*|


They painted up your secrets
With the lies they told you
And the least they ever gave you
Was the most you ever knew

And I wonder where these dreams go
When the world gets in your way
What’s the point in all this screaming
No one’s listening anyway

Your voice is small and fading
And you hide in here unknown
And your mother loves your father
’cause she’s got nowhere to go

And she wonders where these dreams go
’cause the world got in her way
What’s the point ever trying
Nothing’s changing anyway

They press their lips against you
And you love the lies they say
And I tried so hard to reach you
But you’re falling anyway

And you know I see right through you
When the world gets in your way
What’s the point in all the screaming
You’re not listening anyway

 Comments (click here to add a non-facebook comment)
The / means to slide the note. Example 5/7
means to hit the note on the fifth fret and slide it to the 7th.
-jlbryan | 3/2/2005
Home | FAQs | Privacy | Terms | Contact
Top 100 Tab Sites