Give Kudos?
Are you sure you want to give kudos to aussief?

Add To Songbook?
Are you sure you want to add this song to your songbook?


3,408 bands | 16,378 songs
Search: Register FREE! | Login
Browse Songs:
Browse Bands:
Tool Panel
Discuss This Song

1 2 3 4 5





Glen Campbell - Galveston (Tab)
Album: Galveston (2001)
Submitter: aussief (135) on 10/19/12 2 comments
Month Views: 209 | Total Views: 14,091
Moderator: Ray Terry | Report This Song?
Song Tools

Comment

Songbook

Kudos

Show Chords

Print


Songwriter JIMMY WEBB

INTRO

E|--------------------|  F            Bb C
B|--------------------|  / / / / / /  /  /
G|--------------------|
D|----0---------------|
A|-3-----3--0---------|
E|-------------3---1--|

F             Bb C  F
Galveston oh Galveston 
Fmaj7                 F7     Bb      Am  Gm7
I still hear your sea winds blowing 
C        F                 Bb
I still see her dark eyes glowing 
Gm7       C    Dm       Bb             Gm7   F   Bb  C
She was twenty one when I left Galveston 

F            Bb  C  F
Galveston oh Galveston 
Fmaj7                 F7    Bb      Am  Gm7
I still hear your seawaves crashing
C        F                  Bb 
While I watch the cannon's flashing 
Gm7 C      Dm       Bb               Gm7    F  Bb  F
I clean my gun and dream of Galveston 

Ab                       Bb      Ab      Bb
I still see her standing by the water 
Cm                            Ab
Standing there looking out to sea 
            Fm      Bb7      Eb
And is she waiting there for me 
       Gm             Cm      Fm    Bb  C
On the beach where we used to run 

F             Bb  C F
Galveston oh Galveston 
Fmaj7          F7 Bb     Am  Gm7
I am so afraid of dying 
C         F                   Bb      Gm7
Before I dry the tears she's crying 
C              Dm             Bb       Am  Dm7
Before I watch your seabirds flying in the sun 
         D       Gm7  F
At Galveston at Galveston

OUTRO
   F            Bb C  F   Fmaj7            F7 Bb   Am Gm7  C     F     
E|------------|----------|---------------|------------|-------------|----------|
B|----1--1--1-|-3--1--1--|----1--1--1----|------------|-------------|----------|
G|-2----------|----------|-2-----------2-|------------|-------0--2--|--0--2----|
D|------------|----------|---------------|-3--0--3----|----3--------|----------|
A|------------|----------|---------------|------------|-------------|--------3-| 
E|------------|----------|---------------|------------|-------------|----------|

  Bb         Gm7   C     Dm        Bb          Gm7
E|--------|----------------|---------------------|
B|--------|----------------|---------------------|
G|--------|-----------0--2-|-------3--2--0-------|  (REPEAT AND FADE)
D|-0-3----|--3--3--3-------|----0-----------3--3-|
A|--------|----------------|---------------------|
E|--------|----------------|---------------------|

An F. K. Tab,,,,Enjoy!!!!!!
 Comments (click here to add a non-facebook comment)
Great song..and great job, as always. KK.
-kraziekhat | 10/20/2012
Hey Aussief, nice job! Keep it going. Ron from Boston. p.s Shirley Alston Reeves (The Shirelles) is playing outside of Boston, next Saturday. Group of 8 good seats will let you know how they sounded!
-harleygeezer | 10/20/2012
Home | FAQs | Privacy | Terms | Contact
Top 100 Tab Sites