Give Kudos?
Are you sure you want to give kudos to waynusofuranus?

Add To Songbook?
Are you sure you want to add this song to your songbook?


3,038 bands | 13,528 songs
Search: Register FREE! | Login
Browse Songs:
Browse Bands:
Tool Panel
Discuss This Song

1 2 3 4 5





Gin Blossoms - Hey Jealousy (Chord)
Submitter: waynusofuranus (4) on 10/28/05
Month Views: 13 | Total Views: 10,147
Help! We need a moderator for this artist. | Report This Song?
Song Tools

Comment

Songbook

Kudos

Show Chords

Print

HEY JEALOUSY
Written by Doug Hopkins

4 beats per chord

INTRO:
(pick-up)
3  +  4  +
E
B  C# B  G#  -bass

Dsus2  E  F#m7  E

Dsus2  E  F#m7  E
                  Well tell me d'you

VERSE:
Dsus2             E                F#m7               E
Think it'd be all right if I could just crash here to-night you can see
Dsus2               E                       F#m7            E
I'm in no shape for drivin' and anyway I've got no place to go and you know it
Dsus2             E                F#m7          E
Might not be that bad you were the best I'd ever had if I hadn't
Dsus2                 E           F#m7           E
Blown the whole thing years ago I might not be a-lone tomorrow we can

CHORUS:
A                 D                A               D
Drive around this town and let the cops chase us a-round the past is gone but
F#m                E                 D     D
Something might be found to take its place hey jealousy

REFRAIN:
Dsus2  E              F#m7  E
         Hey jealousy-ee      hey jealousy-
Dsus2  E              F#m7  E
ee       hey jealousy-ee      'nd you can

VERSE:
Dsus2           E         F#m7           E
Trust me not to think and not to sleep a-round and if you
Dsus2            E                F#m7             E
Don't expect too much from me you might not be let down cos all I really
Dsus2             E           F#m7            E
Want's to be with you feelin' like I'd matter too if I hadn't
Dsus2                 E           F#m7               E
Blown the whole thing years ago I might be here with you tomorrow we can

CHORUS:
A                 D                A               D
Drive around this town and let the cops chase us a-round the past is gone but
F#m                E                 D     D
Something might be found to take its place hey jealousy

SOLO:  (four times)
D5  E5  F#5  E5

CHORUS:
A                 D                A               D
Drive around this town and let the cops chase us a-round the past is gone but
F#m                E                 D     D
Something might be found to take its place hey jealousy

REFRAIN:
Dsus2  E              F#m7  E
         Hey jealousy-ee      hey jealousy-
Dsus2  E              F#m7  E
ee       hey jealousy-ee      well tell me d'you

VERSE:
Dsus2             E                F#m7               E
Think it'd be all right if I could just crash here to-night you can see
Dsus2               E                       F#m7            E
I'm in no shape for drivin' and anyway I've got no place to go and you know it
Dsus2             E                F#m7          E
Might not be that bad you were the best I'd ever had if I hadn't
Dsus2                 E           F#m7           E
Blown the whole thing years ago I might not be a-lone tomorrow we can

CHORUS:
A                 D                A               D
Drive around this town and let the cops chase us a-round the past is gone but
F#m                E                 D     D
Something might be found to take its place hey jealousy

CODA:
Dsus2  E  F#m7  E

Dsus2  E  F#m7  E
                  Hey jealousy-
Dsus2  E              F#m7  E
ee       listen to my heart   well there's only
Dsus2                E    F#m7  E
One thing I couldn't start      (rit)

ENDING:
D6/9    D5
(hold) (on cue)

================================================================================

CHORDS:
   Dsus2  E   F#m7  A   D  F#m  D6/9  D5    D5  E5  F#5
E|---0----0----0----0---2---2----0-------|--------------|
B|---3----0----2----2---3---2----0----3--|--------------|
G|---2----1----2----2---2---2----2----2--|--7---9---11--|
D|---0----2----4----2---0---4----0----0--|--7---9---11--|
A|-------(2)--(4)---0-------4------------|--5---7---9---|
E|-------(0)--(2)-----------2------------|--------------|

Main guitar plays arpeggios (clean and distorted)
* These figures vary throughout the song
Second guitar (distorted) plays power chords
Note the syncopated changes every second bar

   Dsus2         E                     F#m7          E
   D5            E5                    F#5           E5
   1 + 2 + 3 + 4 +   1 + 2 + 3 + 4 +   1 + 2 + 3 + 4 +   1 + 2 + 3 + 4 +
E|---------0-------|---0-----------0-|---------0-------|---0-------------|
B|---3-------3---0-|-----0---0-2-0---|---2-------2---0-|-----0-----0---0-|
G|-----2-------2---|-------1---------|-----2-------2---|-------1-----1---|
D|-0-----0---------|-----------------|-4-----4---------|---------2-------|
A|-----------------|-----------------|-----------------|-----------------|
E|-----------------|-----------------|-----------------|-----------------|

CHORUS:
Main guitar appears to use the open strings
as a passing chord between each change
Second guitar licks add extensions (4,6,7,9)
Bass part suggests different chords

   A             D                     A             D
   1 + 2 + 3 + 4 +   1 + 2 + 3 + 4 +   1 + 2 + 3 + 4 +   1 + 2 + 3 + 4 +
E|-----------------|-----------------|-----------------|-----------------|
B|-10----10--9---7-|---5-5-5---5-5-5-|-5/7-7-7---5---3-|---2---3-----2---|
G|-11----11--9---7-|---6-6-6---6-6-6-|-6/7-7-7---6---4-|---2---4-----2---|
D|-----------------|-----------------|-----------------|-----------------|
A|-----------------|-----------------|-----------------|-----------------|
E|-----------------|-----------------|-----------------|-----------------|
 |                 |                 |                 |                 |
G|-----------------|-----------------|-----------------|-----------------|
D|-----7-----7-----|-----------------|-----7-----7-----|---------------7-|
A|--------/9---9-5-|-----------7-----|--------/9---9-5-|---5-5-5---5/7---|
E|-5---------------|-------9---------|-5---------------|-----------------|

   F#m           E                     D             D             E
   1 + 2 + 3 + 4 +   1 + 2 + 3 + 4 +   1 + 2 + 3 + 4 +   1 + 2 + 3 + 4 +
E|-----------------|-----------------|-----------------|-----------------|
B|-10--10----10----|/12--12----12----|-10--------10--10|-----10----12----|
G|-11--11----11----|/13--13----13----|-11--------11--11|-----11----13----|
D|-----------------|-----------------|-----------------|-----------------|
A|-----------------|-----------------|-----------------|-----------------|
E|-----------------|-----------------|-----------------|-----------------|
 |                 |                 |                 |                 |
G|-----------------|-----------------|-----------------|-----------------|
D|-----------------|-----------------|-----------------|-----------------|
A|/9---9---9-9-9-7-|---7-7---7-7-7---|-5---5---5-5-5-5-|---5-5---7-7-7---|
E|-----------------|-----------------|-----------------|-----------------|

SOLO:
The solo on the recording is out of tune, scrappy, and unsure of which
key/scale to use... you can probably do better yourself!
Backing begins as power chords and builds with a lot of noise... try
adding open 1st-2nd-strings to the strum.


Waynus Of Uranus
October 2005
 
 Comments (click here to add a non-facebook comment)
Home | FAQs | Privacy | Terms | Contact
Top 100 Tab Sites