Give Kudos?
Are you sure you want to give kudos to aussief?

Add To Songbook?
Are you sure you want to add this song to your songbook?


3,395 bands | 16,293 songs
Search: Register FREE! | Login
Browse Songs:
Browse Bands:
Tool Panel
Discuss This Song

1 2 3 4 5





Gilbert O` Sullivan - Clair (Tab)
Submitter: aussief (133) on 1/11/13 1 comment
Month Views: 12 | Total Views: 2,495
Help! We need a moderator for this artist. | Report This Song?
Song Tools

Comment

Songbook

Kudos

Show Chords

Print


  Words and Music by Gilbert O'Sullivan

 (Big Jim Sullivan does the guitar work on this one (died 2 Oct 2012) has
  also worked on countless songs from the 50`s right through `till his death
  he worked on a lot of songs that are tabbed here,, Cilla Black, Tom Jones,
  Walker Brothers, P.J Proby, Cliff Richard, Gerry and The Pacemakers and many
  more)
   Fm7      Bbm7             Db6    Eb9     Db6    Eb9
E|--------|----------------|--------------|-----1-----------|
B|--------|-----1-1--1-2-4-|-1--2-1-----1-|-4------1--------|
G|-1----0-|-1-3------------|--------3-----|----------3-0----|
D|----3---|----------------|--------------|---------------3-|
A|--------|----------------|--------------|-----------------|
E|--------|----------------|--------------|-----------------|

Fm7
Clair
     Bbm7        Bbm9 Bbm7 Eb9
The moment I met you, I   swear.
  Cm7                        Fm
I felt as if something, somewhere,
     Bbm7                 Gm7        Eb7
Had happened to me, which I couldn't see.
    Fm7        Bbm7              Eb9
And then, the moment I met you, again.
  Cm7                            Fm
I knew in my heart that we were friends.
   Bbm7              Gm7        Eb7
It had to be so, it couldn't be no.

    Ab      Gb                   Bbm7
But try as hard as I might do, I don't know why.
Eb7                       Ab7
You get to me in a way I can't describe.
Db7                           Bb9
Words mean so little when you look up and smile.
              Ab7                          Bb9   
I don't care what people say, to me you're more than a child.
   Bbm7    Eb9
Oh Clair. Clair ...

   Fm7     Bm7            E7       A7                D#m7      C#7
E|-------|--------------|--------|-----------------|---------|-------------|
B|-------|---2-2-2------|--------|-----------------|---------|-------------|
G|-2-----|-2--------4-1-|--1-----|-1-4-4-4---2-1---|-----1-2-|-1-----1-----|
D|-----4-|--------------|------2-|---------------4-|---4-----|---3-4---2-4-|
A|-------|--------------|--------|-----------------|---------|-------------|
E|-------|--------------|--------|-----------------|---------|-------------|

   C#7
E|------------------|
B|------1-2-4-1-----|
G|-1-3----------1---|
D|----------------3-|
A|------------------|
E|------------------|

Fm7
Clair
   Bbm7             Eb9
If ever a moment so rare
     Cm7                  Fm
Was captured for all to compare.
     Bbm7             Gm7          Eb7
That moment is you in all that you do.
    Ab      Gb                         Bbm7
But why in spite of our age difference do I cry.
Eb7                          Ab7
Each time I leave you I feel I could die.
Db7                            Bb9
Nothing means more to me than hearing you say,
               Ab7                      Bb9
"I'm going to marry you. Will you marry me? Oh hurray!"
   Bbm7   Eb9
Oh Clair Clair ...

Fm7
Clair
     Bbm9             Bbm7      Eb7
I've told you before "Don't you dare!"
     Ab7       Fm7
"Get back into bed."
           Bbm7          Eb9
"Can't you see that it's late."
              Ab7     Fm7
"No you can't have a drink."
       Bbm7            Eb9          Ab       Absus
"Oh allright then, but wait just a minute."

Ab    F#                 Bbm7     Eb7
While I, in an effort to babysit, catch up on my breath,
              Ab7
What there is left of it.
Db7                       Bb9
You can be murder at this hour of the day.
            Ab7                         Bb9
But in the morning the sun will see my lifetime away.
   Bbm7   Eb9
Oh Clair Clair ...

   Dm7                Db7                Ab   Bbm7    Eb7
E|-----------------|------------------|---------------------|
B|---------------1-|----------------1-|---------------1-----|
G|-1------1--3-----|--1------1--3-----|--1-----1--3-------3-|
D|----3------------|-----3------------|-----3---------------|
A|-----------------|------------------|---------------------|
E|-----------------|------------------|---------------------|

Ab7
Oh Clair 

An F. K. Tab,,,,Enjoy!!!!!

 Comments (click here to add a non-facebook comment)
Very nice job. KK.
-kraziekhat | 1/12/2013
Home | FAQs | Privacy | Terms | Contact
Top 100 Tab Sites