Give Kudos?
Are you sure you want to give kudos to aussief?

Add To Songbook?
Are you sure you want to add this song to your songbook?


3,408 bands | 16,377 songs
Search: Register FREE! | Login
Browse Songs:
Browse Bands:
Tool Panel
Discuss This Song

1 2 3 4 5





Gerry Rafferty - Baker Street ( With Intro) (Tab)
Submitter: aussief (137) on 6/17/11 1 comment
Month Views: 119 | Total Views: 19,161
Help! We need a moderator for this artist. | Report This Song?
Song Tools

Comment

Songbook

Kudos

Show Chords

Print

Words anf Music by Gerry Rafferty

Guitar Intro

   F        C#                 Eb
E|-5----3-|----4-------------|--------3------|
B|--------|-6-----6-----4--6-|---------------|
G|--------|----------6-------|-5-------------| Play two times
D|--------|------------------|---------------|
A|--------|------------------|---------------|
E|--------|------------------|---------------|

Sax parts
   Eb                      C               Eb                 C
E|------11--------------|-----------|------11--------------|--------------|
B|----------15---13--11-|-13--------|----------15---13--11-|--------------|
G|----------------------|-----------|----------------------|--12--10--12--|
D|-13-------------------|-----------|-13-------------------|--------------|
A|----------------------|-----------|----------------------|--------------|
E|----------------------|-----------|----------------------|--------------|

        Eb                Bb                   Gm  
E|------11--------------|--------------------|-----------11-------------|
B|----------15---13--11-|-11----11--11----11-|---------------15--13--11-|
G|----------------------|--------------------|-12----12-----------------|
D|-13-------------------|--------------------|--------------------------|
A|----------------------|--------------------|--------------------------|
E|----------------------|--------------------|--------------------------|

    F                         F7
E|----------------------------------|
B|-13--13---------------------------|
G|---------10-----------------------|
D|-------------13---10~~~~~~~~~~~~~~|Play two times
A|----------------------------------|
E|----------------------------------|

G                     C    G    C
Winding your way down on Baker Street
G                    C    G           C
Light in your head, and dead on your feet
     G   Dm7
Well another crazy day
     F
You drink the night away
      C             F   C
And forget about everything
G                 C         G       C
This city desert makes you feel so cold,
        G              C        G      C
Its got so many people but its got no soul
     G     Dm7                 F
And it's taken you so long to find out you were wrong
          C                 F   C
When you thought it held everything

Cm7                           Gm7
You used to think that it was so easy
Cm7                         Gm7
You used to say that it was so easy
    Bb              F             C
But you're tryin', you're tryin' now
Cm7                         Gm7
Another year and then you'd be happy
Cm7                               Gm7
Just one more year and then you'd be happy
     Bb             F            C
But you're cryin', you're cryin' now

(REPEAT INTRO)
G                                   C   G   C
Way down the street there's a light in his place
G
He opens the door
               C      G    C
He's got that look on his face
    G   Dm7
And he asks you where you've been
     F
You tell him who you've seen
         C          F   C
And you talk about anything
G              C           G          C
He's got this dream about buyin' some land
G                      C             G          C
He's gonna give up the booze and the one night stands
    G           Dm7
And then he'll settle down
F
It's a quiet little town
     C              F  C
And forget about everything
Cm7                        Gm7
But you know he'll always keep movin'
Cm7                        Gm7
You know he's never gonna stop movin'
        Bb
'Cause he's rollin'
F                 C
He's the rolling stone
Cm7                         Gm7
And when you wake up it's a new mornin'
Cm7                       Gm7
The sun is shining it's a new mornin'
     Bb            F           C
And you're going, you're going home

(REPEAT INTRO AND FADE)

An F. K. Tab,,,, Enjoy!!!!!! 



 Comments (click here to add a non-facebook comment)
One of my favourites. Nice job. KK.
-kraziekhat | 6/18/2011
Home | FAQs | Privacy | Terms | Contact
Top 100 Tab Sites