Give Kudos?
Are you sure you want to give kudos to guitarviper?

Add To Songbook?
Are you sure you want to add this song to your songbook?


3,430 bands | 16,491 songs
Search: Register FREE! | Login
Browse Songs:
Browse Bands:
Tool Panel
Discuss This Song

1 2 3 4 5



Georgia Satellites - Keep Your Hands To Yourself (Lead)
Submitter: guitarviper (10) on 2/19/03
Month Views: 17 | Total Views: 5,615
Moderator: josephbialczak | Report This Song?
Song Tools

Comment

Songbook

Kudos

Show Chords

Print

Keep Your Hands To Yourself - Lead
Georgia Satellites
Tabbed by Guitarviper

These are all the lead parts used in the song, in the order they appear.


First Break:
--5-5-5-5-------5-8-5--------5-5--5-7br-5-7br-5---------5-5---5-5-5--
--5-5-5-5-7-5-5-5-7-5--7-5---5-5--5-7br-5-7br-5---7br-5-5-5-7-5-5-5--
----------7-5-6--------7-5-----7b---------------5-7br-5-----7--------
---------------------------7-----------------------------------------
---------------------------------------------------------------------
---------------------------------------------------------------------


Main Solo:
-8--8--8--8--8-8-8-5-5-5---------5---5-5---------------------------------
-7b-7b-7b-7b-7-7-7-5-5-5-7-5-----5-5-5-5-8b-8br-5-8br-5---5--------------
-------------------------7-5-5h7---7b-------------------5---7br-5---5-7--
------------------------------------------------------------------7------
-------------------------------------------------------------------------
-------------------------------------------------------------------------

-------10----10--10----------10----10--10-------5-----5-----5-----5-5-5----5----5-5--
-------10-12-10--10-12-------10-12-10--10-0-----5-----5-----5-----5-5-5-5--5-5--5-5--
--9/11----12--------12-10h11----12--------0-5h6---5-6---5-6---5-6-------7b---7b------
-------------------------------------------------------------------------------------
-------------------------------------------------------------------------------------
-------------------------------------------------------------------------------------

------------------5-5---------------------------------5-8-8--8-8-8-8-8----
--5-----------------5-8br-5---------------------------5-7-7--7-7-7-7-7-8--
--7b-7b-7b-7-5-7b-----------7br-5--------------------------------------9--
----------------------------------7-7-6/7-7-6/7-7-6/7---------------------
--------------------------------------------------------------------------
--------------------------------------------------------------------------

---------------------------------------------------------------------5-5------------
--8/10-10\8-8/10-10\8-8/10-10\8-8/10-10\8-8/10-10/12-12\10-10\--x-5--5-5-5--8-7-7b--
--9/11-11\9-9/11-11\9-9/11-11\9-9/11-11\9-9/11-11/12-12\11-11\--x-7b-----7b-8-7-5b--
------------------------------------------------------------------------------------
------------------------------------------------------------------------------------
------------------------------------------------------------------------------------

-------------------10---------------5-----5-----5-----5-5---8-8-8--8-8-8-8-8--
--13b-13b-13----13----10-13b-13-----5-----5-----5-----5-5---7-7-7--7-7-7-7-7--
-------------12--------------11\5-6---5-6---5-6---5-6-----0-------------------
------------------------------------------------------------------------------
------------------------------------------------------------------------------
------------------------------------------------------------------------------

--7br-5----------5-5-----------10----------------
--7br-5-7br------5-5-8b-8b-8br----8br--5-5-------
--------7br-5-7b---------------------------5-5b--
-------------------------------------------------
-------------------------------------------------
-------------------------------------------------


Outro Solo:
--4/5-5-5-5---5-7-5-7b-8-7-5----5-5-5-8-7-5----5-5-5-----5----5----5-5--
--4/5-5-5-5-7-5-7-5-7b-8-7-5-5--5-5-5-8-7-5-5--5-5-5-7br-5-7b-5-5--5-5--
------------7----------------7b-------------7b-------7br---7b---7b------
------------------------------------------------------------------------
------------------------------------------------------------------------
------------------------------------------------------------------------

--------10-12-10-12b-13-12-10-12b-13-13-13-13-12-10\-----5-----5-----5-----5-----5---------
--------10-12-10-12b-13-12-10-12b-13-13-13-13-12-10\---------------------------------------
--10/11----------------------------------------------5-6---5-6---5-6---5-6---5-6---5-6/13--
-------------------------------------------------------------------------------------------
-------------------------------------------------------------------------------------------
-------------------------------------------------------------------------------------------

--12----------12--12----------12-x-10-10-10-10-------10-10-10----------10-10--
--12-14p12----12--12-14p12-12-12-x-10-10-10-10h12----10-10-10-12p10-10-10-10--
-----------13-------------------------------------11--------------------------
------------------------------------------------------------------------------
------------------------------------------------------------------------------
------------------------------------------------------------------------------

-----------17--------17--------17-20--20--20-20-20-17-17-------------17------17--------------
--16/17-17-17-17--17----17--17-17-19--19--19-19-19-17-17-19-17-17----17-17---17-19-17-17-----
--17/18-18----19b-------19b------------------------------19-17-18-------19b-----19-17-18-----
------------------------------------------------------------------19---------------------19--
---------------------------------------------------------------------------------------------
---------------------------------------------------------------------------------------------

--17------17------17-17-17-------------17-20br--17\-------10-12-10-12b--12-10-12b-13-13-13--
--17-17---17-17---17-17-17-19p17----17-17-19br--17\-------10-12-10-12b--12-10-12b-13-13-13--
-----19b-----19b-----------------18-----------------10/11-----------------------------------
--------------------------------------------------------------------------------------------
--------------------------------------------------------------------------------------------
--------------------------------------------------------------------------------------------

--12-12-10\-----5-----5-----5-----5-----5--------12-12-12-12----12-12\10-10-12br-10-----10-5--
--12-12-10\--------------------------------------12-14-12-15-12-12-12\10-10-12br-10-10--10-5--
------------5-6---5-6---5-6---5-6---5-6---5-6/13-------------13---------------------12b-------
-------------------------------------------------------------14-------------------------------
----------------------------------------------------------------------------------------------
----------------------------------------------------------------------------------------------

--7br-5-----5-7br-5-----5-7br-5-----5-7br-5-----5-----5-----5-7br-5-8-7-5-8-7-5----5-8-7-5--------
--7br-5-7br-5-7br-5-7br-5-7br-5-7br-5-7br-5-7br-5-7br-5-----5-7br-5-8-7-5-8-7-5-5--5-------8-7-5--
--------7br---------7br---------7br---------7br---------7br---------------------7b----------------
--------------------------------------------------------------------------------------------------
--------------------------------------------------------------------------------------------------
--------------------------------------------------------------------------------------------------

--------------10-10-------10--12b-12-12br-12-12br---------------
-----8p5------10-12p10----10--12b-12-12br-12-12br-etc fade out--
--7b-----6/11----------11---------------------------------------
----------------------------------------------------------------
----------------------------------------------------------------
----------------------------------------------------------------





 Comments (click here to add a non-facebook comment)
Home | FAQs | Privacy | Terms | Contact
Top 100 Tab Sites