Give Kudos?
Are you sure you want to give kudos to aussief?

Add To Songbook?
Are you sure you want to add this song to your songbook?


3,017 bands | 13,367 songs
Search: Register FREE! | Login
Browse Songs:
Browse Bands:
Tool Panel
Discuss This Song

1 2 3 4 5





George Harrison - My Sweet Lord (Tab)
Submitter: aussief (268) on 3/9/09
Month Views: 737 | Total Views: 36,929
Moderator: josielittle | Report This Song?
Song Tools

Comment

Songbook

Kudos

Show Chords

Print

INTRO CHORDS

Em       A        Em       A
/ / / /  / / / /  / / / /  / / / /

INTRO
   D            Bm                 D                Bm
E|-14--12----|--12--------------|---14---12------|---12--------------------------|
B|--------15-|-----15--12--12---|-----------15---|-------15--12-----12---15--12--|
G|-----------|------------------|----------------|--------------14---------------|
D|-----------|------------------|----------------|-------------------------------|
A|-----------|------------------|----------------|-------------------------------|
E|-----------|------------------|----------------|-------------------------------|

   D            Eb7                      Em
E|-14--12-----|--11-------------------|------------------------------|
B|--------15--|-----13---13-------13--|--12---12---12----------------|
G|------------|--------------14-------|---------------14-------------|
D|------------|-----------------------|-------------------16--14-----|
A|------------|-----------------------|------------------------------|
E|------------|-----------------------|------------------------------|


A         Em
My sweet lord
A       Em
Hm, my lord
A      Em
Hm, my lord

A                D         Bm
I really want to see you
               D              Bm
Really want to be with you
               D
Really want to see you lord
       Eb7                Em
But it takes so long, my lord

A         Em
My sweet lord
A       Em
Hm, my lord
A       Em
Hm, my lord

A                D            Bm
I really want to know you
               D              Bm
Really want to go with you
                D
Really want to show you lord
         Eb7               Em
That it wont take long, my lord (hallelujah)

A         Em
My sweet lord (hallelujah)
A       Em
Hm, my lord (hallelujah)
A        Em
My sweet lord (hallelujah)

A                D
I really want to see you
               D7
Really want to see you
               B7
Really want to see you, lord
                E
Really want to see you, lord
        F7                F#m
But it takes so long, my lord (hallelujah)

B              F#m
My sweet lord (hallelujah)
B            F#m
Hm, my lord (hallelujah)
B               F#m
My, my, my lord (hallelujah)

A                D          Bm
I really want to know you (hallelujah)
               D            Bm
Really want to go with you (hallelujah)
                D
Really want to show you lord (aaah)
              Eb7            Em
That it wont take long, my lord (hallelujah)

A     Em
Hmm (hallelujah)
A             F#m
My sweet lord (hallelujah)
B             F#m
My, my, lord (hallelujah)

B            F#m
Hm, my lord (hare krishna)
B                F#m
My, my, my lord (hare krishna)
B                    F3m
Oh hm, my sweet lord (krishna, krishna)
B          F#m
Oh-uuh-uh (hare hare)

A                      D       Bm
Now, I really want to see you (hare rama)
A              D             Bm
Really want to be with you (hare rama)
                D
Really want to see you lord (aaah)
        Eb7                   Em
But it takes so long, my lord (hallelujah)

(REPEAT AND FADE)
 Comments (click here to add a non-facebook comment)
Home | FAQs | Privacy | Terms | Contact
Top 100 Tab Sites