Give Kudos?
Are you sure you want to give kudos to aussief?

Add To Songbook?
Are you sure you want to add this song to your songbook?


3,395 bands | 16,292 songs
Search: Register FREE! | Login
Browse Songs:
Browse Bands:
Tool Panel
Discuss This Song

1 2 3 4 5





George Baker Selection - Holy Day (Tab)
Submitter: aussief (130) on 7/24/11 1 comment
Month Views: 17 | Total Views: 2,006
Moderator: kraziekhat | Report This Song?
Song Tools

Comment

Songbook

Kudos

Show Chords

Print

Words and Music by Johannes Hans Bouwens ( A K A George Baker)

INTRO

   Eb      F7           Bb                             Eb       F7
E|-------|------------|--------------|---------------|--------|---------------|
B|-4---3-|------6---4-|-3---4--3-----|---------------|-4----3-|---------------|
G|-------|-5----------|------------5-|-3---2---0-----|--------|-5-------0---2-|
D|-------|------------|--------------|---------------|--------|-----3---------|
A|-------|------------|--------------|---------------|--------|---------------|
E|-------|------------|--------------|---------------|--------|---------------|

   Bb         nc
E|---------|--------------------|------------|
B|---------|--------------------|------------|
G|-3-------|---2--0-------------|------------|
D|---------|---------3--1--0----|------------|
A|---------|------------------3-|-1----------|
E|---------|--------------------|------------|

Bb
Take my pony and I go
Eb
To the better land I know
    Bb                   F7
Looking for a place to stay

Bb
Fishing on the riverside
Eb
Sun is shining warm and bright
Bb             F7   Bb
Yes, this is a holiday

      F7          Bb
A holiday, a holy holiday
           F7             Bb
This is my holy, holy holiday
      F7           Bb
A holiday, a holy holiday
           Eb         F7  Bb
This is my holy, holy holiday

(REPEAT INTRO)
Bb
Water is there clean and clear
Eb
You can live there without fear
Bb                   F7
People try to understand
Bb
Forget you troubles and your pain
Eb
Someday you will stand again
Bb             F7    Bb
Yes, this is a holy land

      F7           Bb
A holiday, a holy holiday
            F7            Bb
This is my holy, holy holiday
     F7             Bb
A holiday, a holy holiday
           Eb         F7   Bb
This is my holy, holy holiday

     F7            Bb
A holiday, a holy holiday
            F7            Bb
This is my holy, holy holiday
    F7              Bb
A holiday, a holy holiday
            Eb        F7   Bb
This is my holy, holy holiday

     F7             Bb
A holiday, a holy holiday
            F7            Bb
This is my holy, holy holiday
    F7              Bb
A holiday, a holy holiday
           Eb         F7   Bb
This is my holy, holy holiday

  F7    Bb    F7  Bb
A holy, holy, holiday
   F7
A holy holiday
           Eb         F7  Bb
This is my holy, holy holiday
     F7             Bb
A holiday, a holy holiday
           Eb         F7  Bb
This is my holy, holy holiday

  F7    Bb    F7   Bb
A holy, holy, holiday
  F7
A holy holiday
           Eb         F7  Bb
This is my holy, holy holiday
     F7             Bb
A holiday, a holy holiday
           Eb         F7   Bb       
This is my holy, holy holiday
F7   Bb
Lalala..

An F. K. Tab,,,, Enjoy!!!!!!!
 Comments (click here to add a non-facebook comment)
Nice job. KK.
-kraziekhat | 7/25/2011
Home | FAQs | Privacy | Terms | Contact
Top 100 Tab Sites