Give Kudos?
Are you sure you want to give kudos to aussief?

Add To Songbook?
Are you sure you want to add this song to your songbook?


3,412 bands | 16,395 songs
Search: Register FREE! | Login
Browse Songs:
Browse Bands:
Tool Panel
Discuss This Song

1 2 3 4 5





Gary Moore - Still Got The Blues ( For You) (Tab)
Submitter: aussief (67) on 1/10/13 1 comment
Month Views: 11 | Total Views: 15,227
Help! We need a moderator for this artist. | Report This Song?
Song Tools

Comment

Songbook

Kudos

Show Chords

Print

   Words and Music by Gary Moore

INTRO
              Dm7          G7                 Gmaj7       Fmaj7
E|----10-12-|-13----13-12--10------------10-|-12----12-10----------------|
B|-10-------|-------------------------13----|-------------13----10-12-13-|
G|----------|----------------------12-------|----------------------------|
D|----------|-------------------------------|----------------------------|
A|----------|-------------------------------|----------------------------|
E|----------|-------------------------------|----------------------------|

   Bm7     E               Am
E|-10-------------------|-------------|
B|-----13--12-----11----|-10----------|
G|-------------------12-|-------------|
D|----------------------|-------------|
A|----------------------|-------------|
E|----------------------|-------------|

Dm7           G7   Cmaj7      Fmaj7
Used to be so easy to give my heart away
Bm7                  E
But I found out the hard way
           Am
There's a price you have to pay
Dm7               G7  Cmaj7   Fmaj7
I found out that love was no friend of mine
Bm7                 A7          E
I should have known time after time

Am   Em         Am      D7
So long, it was so long ago
          F7           E7        Am
But I've still got the blues for you

Dm7           G7   Cmaj7      Fmaj7
Used to be so easy to fall in love again
Bm7                  E
But I found out the hard way
        Am
It's a road that leads to pain
Dm7           G7  Cmaj7         Fmaj7
I found that love was more than just a game
Bm7
You're playin' to win
        A7             E
But you lose just the same

Am  Em          Am      D7
So long, it was so long ago
          F7           E7         Am
But I've still got the blues for you

Bm       Em              Am
So many years since I've seen your face
Bm          E                 Am    Dm
Here in my heart, there's an empty space
                  Am
Where you used to be

(BREAK)

   Am         Dm7        G7               Cmaj7      Fmaj7
E|----10-12-|-13---13-12-10----------10-|-12---12-10----------------|
B|-10-------|---------------------13----|------------13----10-12-13-|
G|----------|------------------12-------|---------------------------|
D|----------|---------------------------|---------------------------|
A|----------|---------------------------|---------------------------|
E|----------|---------------------------|---------------------------|

   Bm7        E             Am                       Dm7     G7 
E|-10---10----------------|----10--12--------10-12-|-13--15--12-10-----------10-|
B|---------13-12----11-12-|-13------------10-------|----------------------13----|
G|------------------------|------------------------|-------------------12-------|
D|------------------------|------------------------|----------------------------|
A|------------------------|------------------------|----------------------------|
E|------------------------|------------------------|----------------------------|
   Cmaj7         Fmaj7             Bm7                  E7
E|-12---15-12-10-----------------|-10--10--10-10------|-21-19-17-15-12------|
B|---------------13-----10-12-13-|-----------------12-|---------------------|
G|-------------------------------|--------------------|---------------------|
D|-------------------------------|--------------------|---------------------|
A|-------------------------------|--------------------|---------------------|
E|-------------------------------|--------------------|---------------------|

Am  Em          Am      D7
So long, it was so long ago
          F7           E7        Am
But I've still got the blues for you
            Am           Em
Though the days come and go
         Am           G7
There is one thing I know
     F7            E         Am
I've still got the blues for you.

(OUTRO) 

   Am         Dm7        G7              Cmaj7      Fmaj7
E|----10-12-|-13---13-12-10---------10-|-12---12-10----------------|
B|-10-------|--------------------13----|------------13----10-12-13-|
G|----------|-----------------12-------|---------------------------|
D|----------|--------------------------|---------------------------|
A|----------|--------------------------|---------------------------|
E|----------|--------------------------|---------------------------|

   Bm7    E            Am     E7               Dm7       G7
E|-10----------------|----10--12-------10-12-|-13---15--12-10----------10-|
B|----13--12---11-12-|-13-----------10-------|----------------------13----|
G|-------------------|-----------------------|-------------------12-------|
D|-------------------|-----------------------|----------------------------|
A|-------------------|-----------------------|----------------------------|
E|-------------------|-----------------------|----------------------------|

   Cmaj7        Fmaj7            Bm7     E               Am   E7          
E|-12-13-12-10-----------------|-10--------------------|----------10-12-|
B|--------------13----10-12-13-|-----13-12-------10----|-10----10-------|
G|-----------------------------|--------------10----12-|----------------|
D|-----------------------------|-----------------------|----------------|
A|-----------------------------|-----------------------|----------------|
E|-----------------------------|-----------------------|----------------|

    Dm7         G7               Cmaj7        Fmaj7            Bm7     E
E|-13---13-12--10-----------10-|-12---12-10------------------|-10----------------|
B|-----------------------12----|-------------13-----10-12-13-|-----13--12---10-12|
G|--------------------12-------|-----------------------------|-------------------|
D|-----------------------------|-----------------------------|-------------------|
A|-----------------------------|-----------------------------|-------------------|
E|-----------------------------|-----------------------------|-------------------|

   Am                     E7                 Dm7      G7
E|-------------10-----10--12---------10-12-|-13---15--12-10---------10-|
B|-13--10--13------12-------------12-------|---------------------13----|
G|-----------------------------------------|---------------------------|
D|-----------------------------------------|---------------------------|
A|-----------------------------------------|---------------------------|
E|-----------------------------------------|---------------------------|

   Cmaj7          Fmaj7           Bm7          E7        Am
E|-12-13-12-10-10---------------|-10---------|---------|------------------|
B|----------------13---10-12-13-|-----12-----|---------|------13-12-------|
G|------------------------------|---------12-|---------|-14---------14-12-|
D|------------------------------|------------|-14------|------------------|
A|------------------------------|------------|---------|------------------|
E|------------------------------|------------|---------|------------------|

   Em7                       Am
E|-------------------------|---------------|
B|-------------------------|---------------|
G|-------------------------|---------------|
D|-14-12-------------------|---------------|
A|-------15-14-12----------|-12------------|
E|----------------15-13-15-|---------------|
         

   An F. K. Tab,,,,Enjoy!!!!!!


 Comments (click here to add a non-facebook comment)
Excellent job. KK.
-kraziekhat | 1/11/2013
Home | FAQs | Privacy | Terms | Contact
Top 100 Tab Sites