Give Kudos?
Are you sure you want to give kudos to taylor7458?

Add To Songbook?
Are you sure you want to add this song to your songbook?


3,420 bands | 16,457 songs
Search: Register FREE! | Login
Browse Songs:
Browse Bands:
Tool Panel
Discuss This Song

1 2 3 4 5



Foo Fighters - Summers End (Tab)
Submitter: taylor7458 (0) on 6/19/10
Month Views: 14 | Total Views: 3,183
Help! We need a moderator for this artist. | Report This Song?
Song Tools

Comment

Songbook

Kudos

Show Chords

Print

Summers End Tab by Foo Fighters
Tabbed by Jack
Intro
------------0-|
------------3-|
------------2-|
------0---0---| X2
---0-3-3-0----|
-33-----------|

hold chord on second time
Verse Riff
-------------------------------------|
-6p5-3------3h5p3-/6p5-3---3---3h5p3-|
-------5-2-5-------------5---5-------|
-------------------------------------|
-------------------------------------|
-------------------------------------|

---------0------3-----------------0-|
-6p5-3---1------3-----------------3-|
-------5-0------0-----------------2-|
---------2------0-----------0---0---|
---------3------2--------0-3-3-0----|
----------------3------33-----------|

VERSE 1
Play Verse Riff
Early morning without warning	Woke me with a scare
                 C     G                       D  
I had that dream again		that the sun was dead
Play Verse Riff
Make me warm or take me home	Its so cold in here
                  C      G                  D 
Can't we meet somewhere	is it winter there?
             D              D
Is it winter there?	This winter

CHORUS
D              Am             C               G  
Meet me in the summertime	We can move the air
D              Am             C             F 
Sweet Virginia countryside	will meet you there
D               Am            C                  G
Golden lips and cherry wine	Moonshine in your hair
D                 Am          C                 F  
Just keep staring at the sun	Pray for summer's end.

------------0-------|
------------3-hold--|
------------2-------|
------0---0---------| 
---0-3-3-0----------|
-33-----------------|

Play Verse Riff
Come on over brave my storm	Oceans overhead
                C       G                     D  
Come inside, my friend		getting bad out there
Play Verse Riff
Every moment we have stolen	All we have to share
              C     G                        D
No one wanted them		ut you know I did
           D   
You know I did			is moment

D              Am             C               G 
Meet me in the summertime	We can move the air
D              Am             C             F  
Sweet Virginia countryside	will meet you there
D               Am             C                G  
Bloody lips and cherry wine	Moonshine in your hair
D                 Am          C                 F  
Just keep staring at the sun	Pray for summer's end

Solo:
--------------------------------------------------------|
---15--13-15-------------------15--13-15----------------|
-14--14-----14-12------------14--14-----14-12--12--12---|
-----------------15-12-15-12-----------------15--15--15-|
--------------------------------------------------------|
--------------------------------------------------------|

--------------------------------------|
---15--13-15--18b(20)r18-15-13-1515~~-|
-14--14-------------------------------|
--------------------------------------|
--------------------------------------|
--------------------------------------|

--------------------------------------------
--------------------------------------------
-----------------------------------11-11-12-
--15--14-12-12-10-7----15-14-12-10----------
-----------------------------------9--9--10-
--13--12-10-10-8--5----13-12-10--8----------

----------------------------------------------
-------------------------------13-13-----13-13
--14--12-11----------------14b-------14b------
-------------15-14-12-10----------------------
--12--10-9------------------------------------
-------------13-12-10--8----------------------

---------------------------------------------------
-----13-13-----13-13-----13-13-----13-13-----13-13-
-14b-------14b-------14b-------14b-------14b-------
---------------------------------------------------
---------------------------------------------------
---------------------------------------------------

---------------------------------------------------
---------------------------------------------------
-14-12----12---------------------------------------
-------15----15-12-15-12---------------------------
---------------------------------------------------
---------------------------------------------------



D              Am             C               G    
Meet me in the summertime	We can move the air
D              Am             C              F
Sweet Virginia countryside	will meet you there
D               Am            C                  G 
Bloody lips and cherry wine	Moonshine in your hair
D                 Am          C                 F
Just keep staring at the sun	Pray for summer's end

D              Am             C   G
Meet me in the summertime	
D              Am             C   G 
Meet me in the summertime
D              Am             C               G 
Meet me in the summertime	We can move the air
D              Am             C               F 
Meet me in the summertime	I will meet you there

Solo part (plays over chorus to end)
-15/17-15---------------------------------
---------18-17-13--------13--15--13----15-
------------------12--14------------14---- play three times
------------------------------------------
 -----------------------------------------
------------------------------------------

END
------------0-------|
------------3-hold--|
------------2-------|
------0---0---------| 
---0-3-3-0----------|
-33-----------------|

 Comments (click here to add a non-facebook comment)
Home | FAQs | Privacy | Terms | Contact
Top 100 Tab Sites