Give Kudos?
Are you sure you want to give kudos to EMRLDEYZS?

Add To Songbook?
Are you sure you want to add this song to your songbook?


3,420 bands | 16,457 songs
Search: Register FREE! | Login
Browse Songs:
Browse Bands:
Tool Panel
Discuss This Song

1 2 3 4 5



Foo Fighters - Everlong (acoustic) (Tab)
Submitter: EMRLDEYZS (36) on 2/12/06
Month Views: 9 | Total Views: 5,417
Help! We need a moderator for this artist. | Report This Song?
Song Tools

Comment

Songbook

Kudos

Show Chords

Print

Drop D:  DADGBE

listen to song to figure out which parts to play.

INTRO & VERSES:

E|----------------------------------------------------------------------|
B|----------------------------------------------------------------------|
G|------11---11-11-11-----11--11-11-----11---11-11-----11---11-11-11-11-|
D|------11---11-11-11-----11--11-11-----11---11-11-----11---11=11-11-11-|
A|------9----9--9--9------9---9--9------9----9--9------9----9--9--9--9--|
D|--0-0----0----------0-0---0-------9-9----9-------9-9----9-------------|

E|--------------------------------------------------------------------|
B|--------------------------------------------------------------------|
G|------7-7-7-7-7-7-7------11-11-11-11-11-11-11-11-11-11-11-11-11-11--|
D|------7-7-7-7-7-7-7------11-11-11-11-11-11-11-11-11-11-11-11-11-11--|
A|------5-5-5-5-5-5-5------9--9--9--9--9--9--9--9---9--9--9--9--9--9--|
D|--5-5-----5---5------9-9-------9--9--------9--9---------9--9--------|


PRE-CHORUS:
E|----------------------------------------------------|
B|----------------------------------------------------|
G|--6-6-6/7-7-7/9-9-9/11-11-11/12-12-12---------------|
D|--x-x-x-x-x-x-x-x-x-x--x--x--x--x--x---7-7-7-7-7-7--|
A|--4-4-4/5-5-5/7-7-7/9--9--9//10-10-10--7-7-7-7-7-7--|
D|--0-0-0-0-0-0-0-0-0-0--0--0--0--0--0---7-7-7-7-7-7--|


CHORUS:

E|-------------------------------------------------|
B|-------------------------------------------------|
G|--11-11-11-11-11--7-7-7-7-7--7-7-7-7-7-7-7-7-7-7-|
D|--11-11-11-11-11--7-7-7-7-7--7-7-7-7-7-7-7-7-7-7-|
A|--9--9--9--9--9---5-5-5-5-5--5-5-5-5-5-5-5-5-5-5-|
D|--9--9--9--9--9---5-5-5-5-5--0-0-0-0-0-0-0-0-0-0-|

E|---------------------------------------|----------------------|
B|---------------------------------------|----------------------|
G|--11-11-11-11-11--7-7-7-7-7--7-7-7-7-7-|-9-9-9-9--11-11-11-11-|
D|--11-11-11-11-11--7-7-7-7-7--7-7-7-7-7-|-x-x-x-x--x--x--x--x--|
A|--9--9--9--9--9---5-5-5-5-5--5-5-5-5-5-|-7-7-7-7--9--9--9--9--|
D|--9--9--9--9--9---5-5-5-5-5--0-0-0-0-0-|-0-0-0-0--0--0--0--0--|

E|---------------------------------------|--------------------------|
B|---------------------------------------|--------------------------|
G|--11-11-11-11-11--7-7-7-7-7--7-7-7-7-7-|--------------------------|
D|--11-11-11-11-11--7-7-7-7-7--7-7-7-7-7-|-7-7-7-7-7-7--5-5-5-5-5-5-|
A|--9--9--9--9--9---5-5-5-5-5--5-5-5-5-5-|-7-7-7-7-7-7--5-5-5-5-5-5-|
D|--9--9--9--9--9---5-5-5-5-5--0-0-0-0-0-|-7-7-7-7-7-7--5-5-5-5-5-5-|
 Comments (click here to add a non-facebook comment)
Home | FAQs | Privacy | Terms | Contact
Top 100 Tab Sites