Give Kudos?
Are you sure you want to give kudos to texasisalive?

Add To Songbook?
Are you sure you want to add this song to your songbook?


3,420 bands | 16,457 songs
Search: Register FREE! | Login
Browse Songs:
Browse Bands:
Tool Panel
Discuss This Song

1 2 3 4 5



Eric Clapton - Layla (Intro)
Submitter: texasisalive (7) on 8/19/03
Month Views: 13 | Total Views: 3,564
Moderator: EVILUTION | Report This Song?
Song Tools

Comment

Songbook

Kudos

Show Chords

Print

Eric Clapton
Layla

Intro

---------------|--------------------------------|-------------------------
---------------|---------------------3---3------|---5---5---5-------------
------------2--|---------------------3---3------|---5---5---5--2---------2
------------0--|----0--------3-------3---3------|---5---5---5--0---------0
-----0---3-----|--------3----1-------1---1----3-|---3---3---3------0--3---
---------------|--------------------------------|-------------------------

---1-------------------------|---------------------------------------------
---3-----------------3--3----|---5-----------------------------------------
---2-----------------3--3----|---5----------2------------------------------
---------------3-----3--3----|---5-----5----0--------------0---------------
-----------3---1-----1--1--X-|---3--0--3-----------0---3-------------------
-----------------------------|---------------------------------------------


-1----1----------------|----------------------|----------------------------
-3----3----------------|--------------------5-|5\6\5----5-6-5----5-6/8-----
-2----2----------------|------------------7---|------7--------7------------
-0----0---X--3--3----3/|-5--5--5---7----7-----|----------------------------
-------------1--1----1/|-3--3--3---5----------|----------------------------
-----------------------|----------------------|----------------------------


--------------------8----------|-10-12-10/12/10----10----------------------
--6--8/10----8--10------10 13--|----------------13----13-10---10----12/10--
-------------------------------|---------------------------12---12---------
-------------------------------|-------------------------------------------
-------------------------------|-------------------------------------------
-------------------------------|-------------------------------------------


---------------------|---------------------------|-------------------------
---------------5-6-5-|---------------------------|-------------------------
--9--10-9-----7------|-7------7----------------3-|-------------------------
------------7--------|-----7-----7/5---3---3/5---|-------0-----------------
---------------------|-------------------5-------|-5--3-------0---3--------
---------------------|---------------------------|-------------------------
 Comments (click here to add a non-facebook comment)
Home | FAQs | Privacy | Terms | Contact
Top 100 Tab Sites