Give Kudos?
Are you sure you want to give kudos to aussief?

Add To Songbook?
Are you sure you want to add this song to your songbook?


3,412 bands | 16,398 songs
Search: Register FREE! | Login
Browse Songs:
Browse Bands:
Tool Panel
Discuss This Song

1 2 3 4 5





Ennio Morricone - The Good, The Bad And The Ugly (Tab)
Submitter: aussief (82) on 7/5/14 2 comments
Month Views: 24 | Total Views: 1,835
Help! We need a moderator for this artist. | Report This Song?
Song Tools

Comment

Songbook

Kudos

Show Chords

Print

      Music by Ennio Morricone

   Dm              G         Dm               C        Dm       Am
E|--------|-----|----------|---------|-----|---------|--------|-----------|
B|--------|-----|----------|---------|-----|---------|--------|-6--5------|
G|--7-7---|-----|----------|--7-7----|-----|-----5---|--7-7---|------7--5-|
D|-7-7-7--|-----|--5-------|-7-7-7---|-----|--5------|-7-7----|-----------|
A|--------|--8--|-----5----|---------|--8--|---------|--------|-----------|
E|--------|-----|----------|---------|-----|---------|--------|-----------|

   Dm        G       Dm
E|---------|-------|---------|
B|---------|-------|---------|
G|--7-7----|-------|---------|
D|-7-7-7---|--5----|---------|  X2
A|---------|----5--|-5-------|
E|---------|-------|---------|

      Dm       Am       Bb       F         Dm           Am         C       Am
E|------------------|------------------|--------------|----------|-------|-5----|
B|------------------|------------------|--------------|----5-----|-8-----|------|
G|------------5-----|-----------5------|------------5-|--------5-|-------|------|
D|-------7----------|------7-----------|-------7------|-7--------|-------|------|
A|----5----8--------|---5----8---------|----5----8----|----------|-------|------|
E|-5----------------|-5----------------|-5------------|----------|-------|------|

   Dm      G      Dm       G      Dm   G      Dm    G     Bb    Am
E|-------|------|--------|------|-----------|-----------|-------------|
B|-6-5---|-8----|-6-5----|-8----|-6-5---8---|-6-5---8---|-6-5---6-5---|
G|-----7-|----7-|-----7--|----7-|-----7---7-|-----7---7-|-----7-----5-|
D|-------|------|--------|------|-----------|-----------|-------------|
A|-------|------|--------|------|-----------|-----------|-------------|
E|-------|------|--------|------|-----------|-----------|-------------|

   G     F        Em     F       C      Bb       Ab          A7
E|--------------|--------------|--------------|-----------|---------|
B|--------------|--------------|--------------|-----------|---------|
G|-7--5--4--5---|-4------4-----|--------------|-----------|---------|
D|------------7-|---7--5---7---|-5------------|-----------|---------|
A|--------------|------------8-|---8--7--8--5-|-----------|---------|
E|--------------|--------------|--------------|--8--------|--9------|

   Dm              G         Dm              C         Dm
E|-------|------|----------|-------|------|----------|---------|------|---------|
B|-------|------|----------|-------|------|----------|---------|------|---------|
G|--7-7--|------|----------|--7-7--|------|-----5----|--7-7----|------|--7-7----|
D|-7-7-7-|------|--5-------|-7-7-7-|------|--5-------|-7-7-7---|-7----|-7-7-7---|
A|-------|--8---|-----5----|-------|--8---|----------|---------|------|---------|
E|-------|------|----------|-------|------|----------|---------|------|---------|

   Dm
E|---------|-------------|
B|---------|-------------|
G|---------|-------------|
D|-7-------|-------------|
A|---------|-5-----------|
E|---------|-------------|

An F. K. Tab,,,,Enjoy!!!!!!!!
 Comments (click here to add a non-facebook comment)
Excellent!! Love it!! KK.
-kraziekhat | 7/5/2014
Great job, fk...Love this theme song!!!
-microsysinc | 7/7/2014
Home | FAQs | Privacy | Terms | Contact
Top 100 Tab Sites