Give Kudos?
Are you sure you want to give kudos to guitarviper?

Add To Songbook?
Are you sure you want to add this song to your songbook?


3,430 bands | 16,491 songs
Search: Register FREE! | Login
Browse Songs:
Browse Bands:
Tool Panel
Discuss This Song

1 2 3 4 5



Elvis Presley - Can't Help Falling In Love (Tab)
Album: ELV1S 30 # 1 HITS (2005)
Submitter: guitarviper (10) on 2/17/03 1 comment
Month Views: 21 | Total Views: 16,684
Moderator: Norm08 | Report This Song?
Song Tools

Comment

Songbook

Kudos

Show Chords

Print

Can't Help Falling In Love - Tab
Elvis Presley
Tabbed by Guitarviper

This is a nice way of playing the song, fingerpicked  style.

------------------------------0---1-0-----------------------0--------
------------0-------1-------3---------------3-------1-----1---1------
--0-2-----------0-------2---------------0-------0-------0-------0----
--------3-----0---0---2---2-----0-----2---2---0---0---2-----------2--
------3---3---------0-------2-------3---------------3----------------
----1-------3-------------------------------3------------------------


----------3----------------------0-1-------0-------------------------\
--1---------------1------------3-------1-------1---3----------------- \
------0-------0-------2--------------2---2---0---0-----0---------0---  \
----2---2---0---0---2---2---2------3-----------------0---------0-----   \
--3-------2-------0------------------------3-------2-----0---2-------    \
--------------------------3--------------------------------3---------     \  
                                                                           Play twice
----------------------------0---1-0-----------------------0-----------     /
----------0-------1-------3---------------3-------1-----1---1---------    /
--2-----------0-------2---------------0-------0-------0-------0-------   /
------3-----0---0---2---2-----0-----2---2---0---0---2-----------2-----  /
----3---3---------0-------2-------3---------------3------------------- /
--1-------3-------------------------------3---------------------------/


----0---7-5-----------0---7-5-----------0---7--------------------------
--0---8-------------0---8-------------0---8---10------10-10-8---6-6--1-
--0------------9----0------------9----0-------------9------------------
------------10---10-----------10---10------------10-------0-------0----
----------0-----------------0------------------0--------------0------0-
--0-----------------0-----------------0--------------------------------


--------------------------3-------5-------------0-1-------3---------------
--3---------------1-------------------5-------3-------1-------1---3-------
------0---------0-----0-------0-----5---5---0-------2---2---0---0-----0---
----0---------0-----2---3---0---0-----------------3-------2---------0-----
--2-----0---2-----3-------2-------0-------------------------------2-----0-
----------3-------------------------------3-------------------------------


------------------------------------0---1-0-----------------------1-0-----
------------------0-------1-------3---------------3-------1-----------3-1-
--------0-2-----------0-------2---------------0-------0-------0-----------
------0-------3-----0---0---2---2-----0-----2---2---0---0---2---2---------
----2-------3---3---------0-------2-------3---------------3---------------
--3-------1-------3-------------------------------3---------------3---0---


----------------------------0---1-0---------------------------------------0-3-8----
--1---1---0---0---1-------3---------------1-------3-------0-------1-----1-----5-1--
----2---2---0---0-----2---------------0-------0-------0-------0-------0---------0--
--------------------2---2-----0-----2---2---2---2---0---0---0---0---2-----------2--
------------------0-------2-------3-------------------------------3-------------3--
--1-------3---------------------------------------3--------------------------------
 Comments (click here to add a non-facebook comment)
Excellent acoustic tab, sounds great!! Very impressive job!
-Shantel | 2/18/2003
Home | FAQs | Privacy | Terms | Contact
Top 100 Tab Sites