Give Kudos?
Are you sure you want to give kudos to aussief?

Add To Songbook?
Are you sure you want to add this song to your songbook?


3,395 bands | 16,293 songs
Search: Register FREE! | Login
Browse Songs:
Browse Bands:
Tool Panel
Discuss This Song

1 2 3 4 5





Elton John - Blue Eyes (Tab)
Submitter: aussief (132) on 8/9/12 1 comment
Month Views: 24 | Total Views: 4,342
Moderator: scadet | Report This Song?
Song Tools

Comment

Songbook

Kudos

Show Chords

Print

Songwriters: JOHN, ELTON / OSBORNE, GARY ANTHONY
Music by elton john
Lyrics by gary osborne
Available on the album jump up

F
Blue eyes
G     Gm       Am
Babys got blue eyes
Em7              F
Like a deep blue sea
C    Em        G
On a blue blue day

(Piano Riff)
         F7     Eb          Bb  F
E|------------|------------------|
B|------------|------------------|
G|-2--0--0----|------------------|
D|----------3-|-3--1--1--0--0----|
A|------------|----------------3-|
E|------------|------------------|

F   
Blue eyes
G     Gm       Am
Babys got blue eyes
Em7               F7
When the morning comes
Em          F#m7
Ill be far away
B
And I say

Em
Blue eyes
                  C
Holding back the tears
                 G
Holding back the pain
      Gm       Am
Babys got blue eyes
           F7   Em    G
And she's alone     again

(Play Piano Riff)

F 
Blue eyes
G     Gm       Am
Babys got blue eyes
Em7               F
Like a clear blue sky
C        Em   G
Watching over me

(Play Piano Riff)
F
Blue eyes
G  Gm       Am
I love blue eyes
Em7            F7
When Im by her side
Em              F#m7
Where I long to be
B
I will see
Em                        C
Blue eyes laughing in the sun
                G
Laughing in the rain
      Gm       Am
Babys got blue eyes
         F7    Em        B   F7 Em
And I am home, and I am home again

   G          F7     Eb          Bb  F     C
E|-----------------|-------------------|--------------|
B|-----------------|-------------------|--------------|
G|-0----2--0--0----|-------------------|--------------|
D|---------------3-|-3--1--1--0--0-----|--------------|
A|-----------------|----------------3--|---3----------|
E|-----------------|-------------------|--------------|

An F. K. Tab,,,,Enjoy!!!!!!
 Comments (click here to add a non-facebook comment)
Nice job. KK.
-kraziekhat | 8/10/2012
Home | FAQs | Privacy | Terms | Contact
Top 100 Tab Sites