Give Kudos?
Are you sure you want to give kudos to aussief?

Add To Songbook?
Are you sure you want to add this song to your songbook?


3,408 bands | 16,377 songs
Search: Register FREE! | Login
Browse Songs:
Browse Bands:
Tool Panel
Discuss This Song

1 2 3 4 5





Duane Eddy - Rebel-`rouser (Tab)
Submitter: aussief (139) on 3/9/09
Month Views: 9 | Total Views: 2,862
Moderator: TheRedDragon | Report This Song?
Song Tools

Comment

Songbook

Kudos

Show Chords

Print

F                                       Bb                  F
E|------|--------|-----------|-------|---------|-------|-----------|-------|
B|------|--------|-----------|-------|---------|-------|-----------|-------|
G|------|--------|-----------|-------|---------|-------|-----------|-------|
D|------|--------|-----------|-------|---------|-------|-----0--3--|-------|
A|------|--------|-----0--1--|--3----|--0------|--1----|--1--------|--3----|
E|-4----|--1-----|--1--------|-------|-----1---|-------|-----------|-------|

  C7#      F                                       C7       C7#     F
E|------|--------|-----------|-------|-----------|--------|-------|--------|
B|------|--------|-----------|-------|-----------|--------|-------|--------|
G|------|--------|-----------|-------|-----------|--------|-------|--------|
D|------|--------|-----------|-------|-----------|--------|-------|--------|
A|------|--------|----0--1---|--3----|-----0--1--|--3--3--|-------|--------|
E|-4----|--1-----|-1---------|-------|--1--------|--------|--4----|--1-----|

  C7#     F                                       Bb              F
E|------|-----------|--------|----------|-------|---------|-----|---------|
B|------|-----------|--------|----------|-------|---------|-----|---------|
G|------|-----------|--------|----------|-------|---------|-----|---------|
D|------|---3---0---|--3-----|--3----0--|---3---|--3---0--|--3--|--3----0-|
A|------|-----------|--------|----------|-------|---------|-----|---------|
E|--4---|-----------|--------|----------|-------|---------|-----|---------|

   C7#     F                                  Csus       C7#     F       C7#
E|-------|---------|------|----------|------|-----------|------|------|-------|
B|-------|---------|------|----------|------|-----------|------|------|-------|
G|-------|---------|------|----------|------|-----------|------|------|-------|
D|--3----|--3---0--|--3---|--3----0--|--3---|--3----0---|--3---|------|-------|
A|-------|---------|------|----------|------|-----------|------|------|-------|
E|-------|---------|------|----------|------|-----------|------|---1--|----4--|

     (PLAY AGAIN THEN REPLACE THE LAST TWO BARS WITH THIS)

    F   Bb7        F
E|--------------|------------|
B|--------------|------------|
G|--------------|------------|
D|------0---0---|--3----3----|
A|--------------|------------|
E|--1-----------|------------|
 Comments (click here to add a non-facebook comment)
Home | FAQs | Privacy | Terms | Contact
Top 100 Tab Sites