Give Kudos?
Are you sure you want to give kudos to kanderc?

Add To Songbook?
Are you sure you want to add this song to your songbook?


3,064 bands | 13,741 songs
Search: Register FREE! | Login
Browse Songs:
Browse Bands:
Tool Panel
Discuss This Song

1 2 3 4 5





Duane Eddy - Ghost Riders In The Sky (Intro)
Submitter: kanderc (0) on 11/24/04 4 comments
Month Views: 241 | Total Views: 12,055
Moderator: TheRedDragon | Report This Song?
Song Tools

Comment

Songbook

Kudos

Show Chords

Print

e :------------------------------------------------------
B :------------------------------------------------------
G :------------------------------------------------------
D :------------------------------------------------------
A :---0-00-2-3-33-0--------------------------------------
E :-0---------------3-33-0-3-----------------------------


e :------------------------------------------------------
B :------------------------------------------------------
G :------------------------------------------------------
D :---------------0-2-22-0-2-----------------------------
A :---0-00-2-3-33----------------------------------------
E :-0----------------------------------------------------


e :------------------------------------------------------
B :------------------------------------------------------
G :-0-2-22-0-2-------------------------------------------
D :-----------2-0-2-22-----------------------------------
A :--------------------3-0-------------------------------
E :------------------------------------------------------

                       
e :------------------------------------------------------
B :------------------------------------------------------
G :------------------------------------------------------
D :------------------------------------------------------
A :----------3--333-0-----3------------------------------
E :-0-1-11-0----------3-0--------------------------------
 Comments (click here to add a non-facebook comment)
this is my first tab guys, go easy now, ive only been playin for about 2 months, tryin to teach myself.
-kanderc | 11/24/2004
could someone tell me what ya think of this tab?

-kanderc | 11/25/2004
Cool tab from a cool site. Ed


-EddieZ | 9/3/2005
Sorry dude your off you need to practice more
-imageryofsound | 7/17/2010
Home | FAQs | Privacy | Terms | Contact
Top 100 Tab Sites