Give Kudos?
Are you sure you want to give kudos to aussief?

Add To Songbook?
Are you sure you want to add this song to your songbook?


3,414 bands | 16,404 songs
Search: Register FREE! | Login
Browse Songs:
Browse Bands:
Tool Panel
Discuss This Song

1 2 3 4 5





Duane Eddy - Because They`re Young (Tab)
Submitter: aussief (98) on 10/1/11 2 comments
Month Views: 30 | Total Views: 9,846
Moderator: TheRedDragon | Report This Song?
Song Tools

Comment

Songbook

Kudos

Show Chords

Print

  Words by Aaron Schroeder and Wally Gold, Music by Don Coster

(I`ve added the lyrics to help with the timing)

CHORUS

   C        Em7   Dm7   G7     C       Am7    Dm7  G7       C7     F
E|---|-----------|-----------|--------------|--------|-----------|------------|
B|---|----1------|----1------|-1-1----------|--------|-----------|----0--0--0-|
G|---|-0----0----|-0----0--0-|-----0-0------|--------|---0--0--0-|-2----------|
D|-2-|---------2-|-----------|---------2----|-0----0-|-2---------|------------|
A|---|-----------|-----------|------------3-|--------|-----------|------------|
E|---|-----------|-----------|--------------|--------|-----------|------------|
 

   D7       G7        C    A7   Dm7  G7      C     
E|------------------|----0----|------------|------------|
B|-3--3--1--------0-|-1-------|------------|------------|
G|----------4--2----|-------0-|-2----------|------------|
D|------------------|---------|----3--0----|------------|
A|------------------|---------|----------2-|-3----------|
E|------------------|---------|------------|------------|

VERSE


   Dm7       G7      C6          C   Dm7         G7     C           Am7     D7
E|-----------------|---------------|------------------|------------|-----------|
B|-----------------|---------------|------------------|------------|-----------|
G|-----------------|-2-------------|----------------4-|------------|-4--2--2---|
D|-2---------------|----5--5--5--5-|-2----------------|-5--------5-|---------0-|
A|---5--5--5--5--5-|---------------|----5--5--5--5----|------------|-----------|
E|-----------------|---------------|------------------|------------|-----------|


  C6  G Em7       Am7       D7      G9   G7 
E|--------------|-----------------|-------------|
B|-1----------1-|-3--3--1--1------|-------------|
G|---4--4--4----|------------4--2-|-------------|
D|--------------|-----------------|-5--3--2--3--|
A|--------------|-----------------|-------------|
E|--------------|-----------------|-------------|


Lyrics
CHORUS
Because they`re young, Because they`re young
The stars are twice as bright above
Their dreams are new but they`ll come true
Because they`re young and in lo-o-ve
Just like me and you~~~~
VERSE
See the happy couples strolling through the park
Swingin` hands as they go by~~~~~
We know they feel the way we feel and we all know the reason why-y-y. Be......
                    (REAPEAT FROM START)

An F. K. Tab,,, Enjoy!!!!!
 Comments (click here to add a non-facebook comment)
Love Duane Eddy. Good one. KK.
-kraziekhat | 10/2/2011
Great job. Duane Eddy had some great instrumentals. This is my favorite! Thanks Ron
-harleygeezer | 10/2/2011
Home | FAQs | Privacy | Terms | Contact
Top 100 Tab Sites