Give Kudos?
Are you sure you want to give kudos to aussief?

Add To Songbook?
Are you sure you want to add this song to your songbook?


3,412 bands | 16,395 songs
Search: Register FREE! | Login
Browse Songs:
Browse Bands:
Tool Panel
Discuss This Song

1 2 3 4 5





Don Mclean - Castles In The Air (with Intro) (Tab)
Submitter: aussief (67) on 1/31/09
Month Views: 6 | Total Views: 5,898
Help! We need a moderator for this artist. | Report This Song?
Song Tools

Comment

Songbook

Kudos

Show Chords

Print

INTRO

E|-------0-|--2----0-|--4--4--0----|-0-------0-|--2----0-|--4--4--0----|
B|-0--2----|----2----|--4-------2--|-0--0--2---|----2----|--4-------2--|
G|---------|----2----|--2----------|-1---------|----2----|--2----------|
D|---------|---------|-------------|-----------|---------|-------------|
A|---------|---------|-------------|-----------|---------|-------------|
E|---------|---------|-------------|-----------|---------|-------------|

E|-0--------0-|--0-----0-|--4------4-|-----------|---------|
B|-0--0--2----|----0-----|-----0-----|--2--0--2--|--0------|
G|-1----------|----1-----|-----1-----|-----1-----|----1----|
D|------------|----------|-----------|-----------|----2----|
A|------------|----------|-----------|-----------|---------|
E|------------|----------|-----------|-----------|---------|

     E              Emaj7              A          E
And if she asks you why, you can tell her that I told you
           F#m7      B7           E
That I'm tired of castles in the air.
 E          F#m7    B7                 E
I've got a dream I want the world to share
 E          F#m7        B7          E      Emaj7    F6
And castle walls just lead me to despair.~~~~~~~~~~~~~~

E                Emaj7            A                  E
Hills of forest green where the mountains touch the sky,
              F#m7       B7                E
A dream come true, I'll live there till I die.
           F#m7    B7              E
I'm asking you to say my last goodbye.
             F#m7        B7           E      Emaj7    F6
The love we knew ain't worth another try.~~~~~~~~~~~~~~~~
CHORUS
 F#m7                  B7             E
Save me from all the trouble and the pain.
            A                 F#m7      F#7   B7    F#m7  B7  F#m7  B7
I know I'm weak, but I can't face that girl again.~~~~~~~~~~~~~~~~~~~~~
F#m7                  B7            E
Tell her the reasons why I can't remain,
               A  E  D#m7         F#7            B7      F#m7    B7
Perhaps she'll understand if you tell it to her plain.~~~~~~~~~~~~~

2.
But how can words express the feel of sunlight in the morning,
In the hills, away from city strife.
I need a country woman for my wife;
I'm city born, but I love the country life.

For I cannot be part of the cocktail generation:
Partners waltz, devoid of all romance.
The music plays and everyone must dance.
I'm bowing out. I need a second chance.
CHORUS
Save me from all the trouble and the pain.
I know I'm weak, but I can't face that girl again.
Tell her the reasons why I can't remain,
Perhaps she'll understand if you tell it to her plain.
3.
And if she asks you why, you can tell her that I told you
That I'm tired of castles in the air.
I've got a dream I want the world to share
And castle walls just lead me to despair.  
 Comments (click here to add a non-facebook comment)
Home | FAQs | Privacy | Terms | Contact
Top 100 Tab Sites