Give Kudos?
Are you sure you want to give kudos to WildCard76?

Add To Songbook?
Are you sure you want to add this song to your songbook?


3,369 bands | 16,001 songs
Search: Register FREE! | Login
Browse Songs:
Browse Bands:
Tool Panel
Discuss This Song

1 2 3 4 5





Don Henley - The Heart Of The Matter (Intro)
Album: The End of the Innocence (1989)
Submitter: WildCard76 (279) on 8/21/03
Month Views: 23 | Total Views: 2,424
Moderator: ldean66 | Report This Song?
Song Tools

Comment

Songbook

Kudos

Show Chords

Print

DON HENLEY
The Heart Of The Matter
  
   (D)               (G)
 
E---2--2----0h2--2----3--------
B---3--3----3----3----3--------
G---2--2----2----2----0--------
D---0--0----0----0----0--------
A---------------------2--------
E---------------------3--------


   (D)              (G)
  
E---2--2----0h2--2----3--------
B---3--3----3----3----3--------
G---2--2----2----2----0--------
D---0--0----0----0----0--------
A---------------------2--------
E---------------------3--------


Just keep repeating that over, until the verse starts.
 Comments (click here to add a non-facebook comment)
Home | FAQs | Privacy | Terms | Contact
Top 100 Tab Sites