Give Kudos?
Are you sure you want to give kudos to aussief?

Add To Songbook?
Are you sure you want to add this song to your songbook?


3,414 bands | 16,404 songs
Search: Register FREE! | Login
Browse Songs:
Browse Bands:
Tool Panel
Discuss This Song

1 2 3 4 5





Dire Straits - Money For Nothing (Intro)
Submitter: aussief (98) on 2/22/09
Month Views: 6 | Total Views: 3,500
Moderator: EVILUTION | Report This Song?
Song Tools

Comment

Songbook

Kudos

Show Chords

Print

   G5
E|----------------------|----------------------------|------------------------|
B|------------------6---|----------------------------|------------------------|
G|-7---7----5---7---5---|------7---5---5---3------0--|-----0------3-----------|
D|-5---5----5---5-------|--5---5---5---5---3--X---0--|--X--0------3---0---0---|
A|----------------------|----------------------------|------------------------|
E|----------------------|----------------------------|------------------------|



   Bb5       C5             G5
E|-----------------------|-------------------------|----------------------------|
B|-----------------------|-------------------------|-----8-----------------0----|
G|-----------5---3---0---|-----7-------6---7---7---|--------5---7---30-----0-|
D|-3->>>-5---5---3---0---|--5--5---5---5---5---5---|--5-----5---5---30-----0-|
A|-1->>>-3---------------|-------------------------|----------------------------|
E|-----------------------|-------------------------|----------------------------|


                                 F5        G5
E|----------------------------|------------------|
B|----------------------------|------------------|
G|-------------0---30------|------------------|
D|---------4---0----------0---|--3>>>>5----5-----|
A|-----X----------------------|--3>>>>5----5-----|
E|-X--------------------------|------------------|

  = Slide down

>>>>  = Slide up
 Comments (click here to add a non-facebook comment)
Home | FAQs | Privacy | Terms | Contact
Top 100 Tab Sites