Give Kudos?
Are you sure you want to give kudos to lrmorris?

Add To Songbook?
Are you sure you want to add this song to your songbook?


3,434 bands | 16,528 songs
Search: Register FREE! | Login
Browse Songs:
Browse Bands:
Tool Panel
Discuss This Song

1 2 3 4 5



Denvermen - Surfside (Lead)
Submitter: lrmorris (0) on 11/10/11 1 comment
Month Views: 7 | Total Views: 4,748
Help! We need a moderator for this artist. | Report This Song?
Song Tools

Comment

Songbook

Kudos

Show Chords

Print

The Denvermen - Surfside (Transcribed by: L Morrison)

another Australian surfing classic from the 1960s, 1963 to be exac. .Denvermen were based in Sydney Australia during the early 60s.
the lead guitarist on this track was Les Green (nice one Les). The rhythm guitarist was Tex (Alex) Ihasz. The song was mostly written by the manager Johnny Devlin, who was also a minor pop star in Australia. (thanks to Martin Cilia from The Atlantics for the chords to the bridge part.)

symbols: v= sustain, h=hammer, /=slide

       C      Am         F        G        C       Am        F
-----5-3v|-------|-----7-5--5------|-----5-3v|-------|-----7-5v|--------------
---------|-5-----|------------6---6|---------|-5-----|---------|--------------
---5-----|---5---|---5----------7--|---5-----|---5---|---5-----|--------------
-5-------|-----7v|-7---------------|-5-------|-----7v|-7-------|--------------
---------|-------|-----------------|---------|-------|---------|--------------
---------|-------|-----------------|---------|-------|---------|--------------
                                                                              
G      C  STOP    C         Am        F        G          C       Am
--------|-----3h5-3v|---------|-----7-5|-3-5----|-----3h5-3|--------|---------
-8------|-----------|-3/5-----|--------|-----6-3|----------|-3/5----|---------
---7/9-5|---5-------|-----5---|---5----|--------|---5------|-----5--|---------
--------|-5---------|-------7v|-7------|--------|-5--------|-------7|---------
--------|-----------|---------|--------|--------|----------|--------|---------
--------|-----------|---------|--------|--------|----------|--------|---------
                                                                              
       F   G     C7 F          G      C     Am F       G      C
-----7-5-|--------|-----5--3-5-7--5-7---------|-----5--3-5-7--5-7-------------
---------|-8------|---6---------------8-------|---6---------------8-----------
---5-----|---7/9-5|-5--------------------7/9-5|-5-----------------------------
-7-------|--------|---------------------------|-------------------------------
---------|--------|---------------------------|-------------------------------
---------|--------|---------------------------|-------------------------------
                                                                              
Am    F      G     F     G       C       G      C    G7  STOP
------|-----5--3-5-7--5-7-8--7-8-10---12-10-8---10-8-7--5-7-8------|----------
------|---6---------------------------------------------------8-6--|----------
-7/9-5|-5---------------------------------------------------------7|----------
------|------------------------------------------------------------|----------
------|------------------------------------------------------------|----------
------|------------------------------------------------------------|----------
                                                                              
       C  Am      F        G           C         Am
-----3h5-3v|--------|-----7-5v|-3-5----|-----3h5-3|---------|-----------------
-----------|-3/5----|---------|-----6-3|----------|-3/5-----|-----------------
---5-------|-----5--|---5-----|--------|---5------|-----5---|-----------------
-5---------|-------7|-7-------|--------|-5--------|-------7v|-----------------
-----------|--------|---------|--------|----------|---------|-----------------
-----------|--------|---------|--------|----------|---------|-----------------
                                                                              
 F STOP  G STOP       C      Am    F        G     C
-----7-5|-3-5---3------3----|-8-7-5--7-8-10--12/15-12|-----5-3----------------
--------|----------3/5---5--|------------------------|------------------------
---5----|------------------5|------------------------|---5--------------------
-7------|-------------------|------------------------|-5----------------------
--------|-------------------|------------------------|------------------------
--------|-------------------|------------------------|------------------------
                                                                              
 Comments (click here to add a non-facebook comment)
Good one and great band,,, very well done!!!!!
-aussief | 11/12/2011
Home | FAQs | Privacy | Terms | Contact
Top 100 Tab Sites