Give Kudos?
Are you sure you want to give kudos to yinielin?

Add To Songbook?
Are you sure you want to add this song to your songbook?


3,425 bands | 16,469 songs
Search: Register FREE! | Login
Browse Songs:
Browse Bands:
Tool Panel
Discuss This Song

1 2 3 4 5



Def Leppard - Let It Go (Intro)
Submitter: yinielin (0) on 1/18/04
Month Views: 1 | Total Views: 3,592
Moderator: EMRLDEYZS | Report This Song?
Song Tools

Comment

Songbook

Kudos

Show Chords

Print

By:Yinielin
Def Leppard, Let It Go

E--------------------------------------------------
B--------------------------------------------------
G--------5/4--2---------5/4--0--------5/4--2--5-7--
D--------5/4--2---------5/4--0--------5/4--2--5-7--
A--0-3-0------0---0-3-0---------0-3-0------0--3-5--
E--------------------------------------------------


E-------------------------------------------------------
B-------------------------------------------------------
G--------5/4--2---------5/4--0--------5/4--2------------
D--------5/4--2---------5/4--0--------5/4--2-----------0
A--0-3-0------0---0-3-0---------0-3-0------0---3-2-0----
E----------------------------------------------------3--


E-------------------------------------------------------
B-------------------------------------------------------
G--------5/4--2---------5/4--0--------5/4--2------------
D--------5/4--2---------5/4--0--------5/4--2-----------0
A--0-3-0------0---0-3-0---------0-3-0------0---3-2-0----
E----------------------------------------------------3--


E-------------------------------------------------------
B-------------------------------------------------------
G--------5/4--2---------5/4--0--------5/4--2------------
D--------5/4--2---------5/4--0--------5/4--2-----------0
A--0-3-0------0---0-3-0---------0-3-0------0---3-2-0----
E----------------------------------------------------3--
 Comments (click here to add a non-facebook comment)
Home | FAQs | Privacy | Terms | Contact
Top 100 Tab Sites