Give Kudos?
Are you sure you want to give kudos to aussief?

Add To Songbook?
Are you sure you want to add this song to your songbook?


3,395 bands | 16,293 songs
Search: Register FREE! | Login
Browse Songs:
Browse Bands:
Tool Panel
Discuss This Song

1 2 3 4 5





David Rose - The Stripper (Tab)
Submitter: aussief (132) on 6/1/11 1 comment
Month Views: 137 | Total Views: 17,234
Help! We need a moderator for this artist. | Report This Song?
Song Tools

Comment

Songbook

Kudos

Show Chords

Print

Music by David Rose
    F              Bbm7         F             F7 E7Eb7 D7  G9
E|---------------|------------|-------------|------------|----------------|
B|---------------|------------|-------------|-1--0-------|----------------|
G|-------------2-|-0----------|-----------2-|------3-----|-2----2--2----2-|
D|-----0--3------|----3-------|----0--3-----|----------4-|----------------|
A|--3------------|-------4----|-3-----------|------------|----------------|
E|---------------|------------|-------------|------------|----------------|

   C9               F7       Db7     Gm7 Gb7 C7   F             Bbm7
E|----------------|----------------|------------|-------------|------------|
B|----------------|-1--0--1--2---2-|-3----------|-------------|------------|
G|-2----2--2----2-|----------------|----3--2--0-|-----------2-|-0----------|
D|----------------|----------------|------------|----0--3-----|----3-------|
A|----------------|----------------|------------|-3-----------|-------4----|
E|----------------|----------------|------------|-------------|------------|

   F             F7 E7 Eb7 D7   G9               C9
E|--------------|-------------|----------------|----------------|
B|--------------|-1--0--------|----------------|----------------|
G|------------2-|-------3-----|-2----2--2----2-|-2----2--2----2-|
D|----0--3------|-----------4-|----------------|----------------|
A|-3------------|-------------|----------------|----------------|
E|--------------|-------------|----------------|----------------|

   F   F7    F    Bbm     F                F7                DRUMS
E|----------------------|----------------|-------------|---------------------|
B|-----1--1-------------|----------1-----|-4---3--2--1-|---------------------|
G|-----------4--4--3--3-|-2--3--4--------|-------------|-X---X---X-X---X---X-|
D|-3--------------------|--------------3-|-------------|---------------------|
A|----------------------|----------------|-------------|---------------------|
E|----------------------|----------------|-------------|---------------------|

   F7                DRUMS             G7                       C7 Gm7 G  C7
E|-------------|---------------------|------------------------|------------0-|
B|-4---3--2--1-|---------------------|-3--2--1--0--3--2--1--0-|-1---3---4----|
G|-------------|-X---X---X-X---X---X-|------------------------|--------------|
D|-------------|---------------------|------------------------|--------------|
A|-------------|---------------------|------------------------|--------------|
E|-------------|---------------------|------------------------|--------------|

   F             Bbm7        F            F7 E7 Eb7D7   G9
E|-------------|-----------|-------------|------------|--------------|
B|-------------|-----------|-------------|-1--0-------|--------------|
G|-----------2-|-0---------|-----------2-|-------3----|-2---2--2---2-|
D|----0--3-----|----3------|----0--3-----|----------4-|--------------|
A|-3-----------|-------4---|-3-----------|------------|--------------|
E|-------------|-----------|-------------|------------|--------------|

   C9             F            C7    Gm7 C7   F   Db7     Gm7 C7  F
E|--------------|------1-----|-0------0----||-----------|----------1--|
B|--------------|----------3-|----4------1-||-1---2---2-|-3--4--0-----|
G|-3---2--2---2-|------------|-------------||-----------|-------------|
D|--------------|------------|-------------||-----------|-------------|
A|--------------|-3----------|-------------||-----------|-------------|
E|--------------|------------|-------------||-----------|-------------|


An F. K. Tab,,,, Enjoy!!!!!!!


 Comments (click here to add a non-facebook comment)
One of my favourites. A #1 hit in 1962.
Great job, mate. KK.
-kraziekhat | 6/7/2011
Home | FAQs | Privacy | Terms | Contact
Top 100 Tab Sites