Give Kudos?
Are you sure you want to give kudos to aussief?

Add To Songbook?
Are you sure you want to add this song to your songbook?


3,408 bands | 16,354 songs
Search: Register FREE! | Login
Browse Songs:
Browse Bands:
Tool Panel
Discuss This Song

1 2 3 4 5





David Rose - Bonanza ( T. V. Theme) (Tab)
Submitter: aussief (88) on 2/3/10 2 comments
Month Views: 95 | Total Views: 11,106
Help! We need a moderator for this artist. | Report This Song?
Song Tools

Comment

Songbook

Kudos

Show Chords

Print

Composed by Jay Livingston and Ray Evans


   G                                         D7
E|--------------|---------------|---------|---------------|------------|
B|--------------|---------------|---------|---------------|------------|
G|--------------|---------------|-------4-|---------------|------------|
D|--------------|---------------|-5-------|---------------|------------|
A|-5--5-5--5--5-|-5-5-5-5--5--5-|---------|--5--5-5--5--5-|-5-5-5-5--5-|
E|--------------|---------------|---------|---------------|------------|

         Am7 D7   G          C
E|--------------|----------|--------------|---------------|-------------|
B|--------------|----------|--------------|---------------|--------5----|
G|--------------|-0--------|--------------|---------------|-5-----------|
D|---------2--4-|----------|-5--5-5--5--5-|-5-5-5-5--5--5-|-------------|
A|-5--5-5-------|----------|--------------|---------------|-------------|
E|--------------|----------|--------------|---------------|-------------|


   G7                                    Dm7 G7  C         G         C
E|-----------------|------------|--------------|---------|---------|----------|
B|-----------------|------------|--------------|---------|----3----|----------|
G|-----------------|------------|------------4-|-5-------|-4-------|----0-----|
D|-5-5-5-5-5--5--5-|-5-5-5-5--5-|-5--5-5--7----|---------|-------5-|-2--------|
A|-----------------|------------|--------------|---------|---------|-------3--|
E|-----------------|------------|--------------|---------|---------|----------|


   G     A9     D9       G
E|------------|--------|--------------|---------------|---------|
B|------------|--------|--------------|---------------|---------|
G|-------4----|--------|--------------|---------------|-------4-|
D|----5-----5-|-7------|--------------|---------------|-5-------|
A|-5----------|--------|-5--5-5--5--5-|-5-5-5-5--5--5-|---------|
E|------------|--------|--------------|---------------|---------|


   D7                                 Am7 D7   G
E|--------------|------------|--------------|------------|
B|--------------|------------|--------------|------------|
G|--------------|------------|--------------|--0---------|
D|--------------|------------|---------2--4-|------------|
A|-5--5-5--5--5-|-5-5-5-5--5-|-5--5-5-------|------------|
E|--------------|------------|--------------|------------|


An F. K. Tab,,, Enjoy!!!!
 Comments (click here to add a non-facebook comment)
Great tab of a classic riff, aussief !
-microsysinc | 2/3/2010
Good one.KK.
-kraziekhat | 2/4/2010
Home | FAQs | Privacy | Terms | Contact
Top 100 Tab Sites