Give Kudos?
Are you sure you want to give kudos to aussief?

Add To Songbook?
Are you sure you want to add this song to your songbook?


3,394 bands | 16,279 songs
Search: Register FREE! | Login
Browse Songs:
Browse Bands:
Tool Panel
Discuss This Song

1 2 3 4 5





Dave Brubeck - Unsquare Dance (Tab)
Album: Time Further Out (1961)
Submitter: aussief (104) on 3/24/12 1 comment
Month Views: 25 | Total Views: 5,898
Moderator: jackshaw3 | Report This Song?
Song Tools

Comment

Songbook

Kudos

Show Chords

Print

  Composed by Dave Brubeck

 This is in 7/4 time, it can be heard on Youtube I`m sure you will recognise it...

    x = handclapping
E|----x-----x-----x--x-|-----x------x-----x--x-|----x-----x----x--x-|
B|---------------------|-----------------------|--------------------|
G|---------------------|-----------------------|--------------------|
D|---------------------|-----------------------|-0----------0-------|
A|-0----------0--------|-0------------0--------|------3-------------|
E|------3--------------|--------3--------------|--------------------|


E|---x-----x-----x--x-|-----x------x------x--x-|----x------x-----x--x-|
B|--------------------|------------------------|----------------------|
G|--------------------|------------------------|----------------------|
D|--------------------|------------------------|----------------------|
A|-0---------0--------|-2------0------2--------|-0------------0-------|
E|-----3--------------|------------------------|-------3--------------|


E|-17----17------5---|-5--------|------------|---------0---|-0---------5---|-5---|
B|-15-13-15------3---|-3--------|------------|---------0---|-0---------5-3-|-5---|
G|-----------------5-|------2---|-2----------|-----------3-|---------------|-----|
D|-------------------|------0---|-0------3---|-3-----------|---------------|-----|
A|-------------------|--------3-|--------2-0-|-2-----------|---------------|-----|
E|-------------------|----------|------------|-------------|---------------|-----|

   Am6  G      Am        Am  G       Am         Dm    C        Dm
E|-5-5-5-0-------------|-5-5-5-0-------------|-10-10-10-------------------|
B|-5-5-3---3-1---1---3-|-5-5-3---3-1---1-----|-10-10-8-10-8---------------|
G|-------------2--2----|-------------2---2-0-|--------------10----10----10|
D|---------------------|---------------------|-----------------12----12---|
A|---------------------|---------------------|----------------------------|
E|---------------------|---------------------|----------------------------|

   Am  G       Am        Em  Dm      Em             Am    G   Am
E|-5-5-5-0-------------|--------------------------|-------------|
B|-5-5-3---3-1---1-----|-5-5-5-0------------------|-------------|
G|-------------2---2-0-|-4-4-3---2-0---0----3-h-4-|-0-----------|
D|---------------------|-------------2---2--------|-------------|
A|---------------------|--------------------------|-------------|
E|---------------------|--------------------------|-------------|

(PLAY THE FIRST SIX BARS REPEATEDLY WHILE THE DRUMMER (JOE MORELLO) PLAYS
 RIM SHOTS ON THE EDGE OF HIS BASS DRUM)

(THEN PLAY BARS 13-18 TWICE,, THEN PLAY THIS TO END)

   Am      Dm     G       Dm      E             Am         E7 Am
E|-0--------------------------|---------------|-------------------|
B|---3-1-0-1-3-1--------------|---------------|-1----------0--1---|
G|--------------------0-2-0---|---1---------0-|-2----------1--2---|
D|---------------2-3--------2-|-3-2-2-2-3-2---|-2-2-2-3-2--0--2---|
A|----------------------------|---------------|-0----------2------|
E|----------------------------|---------------|-------------------|

An F. K. Tab,,,, Enjoy!!!!!!

 Comments (click here to add a non-facebook comment)
This one is new to me. First time I heard it.
Very nice job. KK.
-kraziekhat | 3/25/2012
Home | FAQs | Privacy | Terms | Contact
Top 100 Tab Sites