Give Kudos?
Are you sure you want to give kudos to aussief?

Add To Songbook?
Are you sure you want to add this song to your songbook?


3,413 bands | 16,403 songs
Search: Register FREE! | Login
Browse Songs:
Browse Bands:
Tool Panel
Discuss This Song

1 2 3 4 5





Dave Brubeck - Take Five (Tab)
Album: Time Out (1959)
Submitter: aussief (96) on 7/20/13 1 comment
Month Views: 3 | Total Views: 1,881
Moderator: jackshaw3 | Report This Song?
Song Tools

Comment

Songbook

Kudos

Show Chords

Print

     Music by Paul Desmond

INTRO  This is in 5/4 Time
   Gm        Dm7     Gm         Dm7     Gm         Dm7      Gm
E|-----------------|------------------|------------------|--------|
B|-----------------|------------------|------------------|--------|
G|-----------------|------------------|------------------|--------|
D|-5-5---5-5-----3-|-5-5----5-5-----3-|-5-5----5-5-----3-|--5-----|
A|------------5----|-------------5----|-------------5----|--------|
E|-----------------|------------------|------------------|--------|

   Dm        Gm         Dm7    Gm   Dm7          Gm   Dm7          Gm  Dm7
E|---------|-----------------|-----------------|-----------------|-------------|
B|-------1-|-2-3-3-1---------|-----------------|-----------------|-----------1-|
G|---0-3---|----------3------|-0----2-3-2-0----|-----------------|-------0-3---|
D|-0-------|------------0--3-|---------------3-|-5---3-5-3-0-----|-0--0--------|
A|---------|-----------------|-----------------|---------------3-|-------------|
E|---------|-----------------|-----------------|-----------------|-------------|

  Gm          Dm7    Gm   Dm7          Gm    Dm7         Gm   Dm7
E|-----------------|-----------------|-----------------|---------|
B|-2-3-2-1---------|-----------------|-----------------|---------|
G|---------3-------|-----------------|------2-3-2-0----|-0-------|
D|------------0--3-|-5----3-5-3-0----|-0-------------3-|---------|
A|-----------------|---------------3-|-----------------|---------|
E|-----------------|-----------------|-----------------|---------|

   Eb7      Cm7        Dm7          Gm7        Cm7           F7
E|-3-6--3------------|----5------------------|----3-------------------|
B|--------4----3-4-5-|-6-------6-3---------3-|-4--------4---------1-2-|
G|----------5--------|--------------3--5-6---|------------5--2--3-----|
D|-------------------|-----------------------|------------------------|
A|-------------------|-----------------------|------------------------|
E|-------------------|-----------------------|------------------------|

   Bb7                  Eb7        Cm7      Dm7          Gm7
E|---------------------|----6--------------|---5------------------|
B|--------4-6--6-5-6-7-|-8-----8-4-----4-5-|-6------6--3--------3-|
G|-7--6-7--------------|-----------5-7-----|-------------3-5-6----|
D|---------------------|-------------------|----------------------|
A|---------------------|-------------------|----------------------|
E|---------------------|-------------------|----------------------|

   Cm7         F7         Am7    D7         Gm          Dm7    Gm   Dm7
E|---3------------------|-----------------|------------------|-----------------|
B|-4------4--------6----|-3-------------1-|-2-3-2-1----------|-----------------|
G|----------5--2-5----4-|-----------0-3---|----------3-------|-0----2-3-2-0----|
D|----------------------|--------0--------|-------------0--3-|---------------3-|
A|----------------------|-----------------|------------------|-----------------|
E|----------------------|-----------------|------------------|-----------------|

   Gm  Dm7           Gm   Dm7       Gm          Dm7     Gm    Dm7
E|-----------------|--------------|-------------------|-------------------|
B|-----------------|------------1-|-2-3-2-1-----------|-------------------|
G|-----------------|--------0-3---|----------3--------|-0-----2-3-2-0-----|
D|-5---3-5-3-0-----|-0----0-------|-------------0--3--|-----------------3-|
A|--------------3--|--------------|-------------------|-------------------|
E|-----------------|--------------|-------------------|-------------------|

   Gm    Dm7          Gm   Dm7   Gm    Dm7         Gm         Dm7
E|------------------|----------|-----------------|---------------|
B|------------------|----------|-3---------------|---------------|
G|------------------|----------|-----------------|--------3------|
D|-5-----3-5-3-0----|-0--------|---------3-0-----|-5-------------|
A|----------------3-|----------|-----------------|---------------|
E|------------------|----------|-----------------|---------------|

   Gm         Dm7     Gm     Dm7   Gm     Dm7     Gm         Dm7
E|-3----------------|------------|--------------|----------------------|
B|----3-1---1-------|--------3---|------------1-|----------------------|
G|--------3---0---3-|-0-2-3------|-0---3--0-2---|-0---3---0--2---------|
D|------------------|------------|--------------|---------------3-0----|
A|------------------|------------|--------------|--------------------3-|
E|------------------|------------|--------------|----------------------|

   Gm      Dm7    Gm        Dm7      Gm     Dm7  Gm         Dm7
E|--------------|------------------|-----------|---------------------|
B|------------1-|--------------3---|----1------|---------------------|
G|-0--3--0-2----|-0---3---0-2------|-----------|----3----2-----------|
D|--------------|------------------|-----------|------------5--------|
A|--------------|------------------|-----------|------------------3--|
E|--------------|------------------|-----------|---------------------|

   Gm  Dm7       Gm    Dm7     Gm         Dm7       Gm          Dm7
E|------3------|-------------|--------------------|----------------------|
B|-1------3----|-------------|-----------------1--|--------------------1-|
G|-----------3-|----0--------|-0-----2------0-----|-0-----2------0-2-3---|
D|-------------|-----------0-|------------3-------|------------3---------|
A|-------------|-------------|--------------------|----------------------|
E|-------------|-------------|--------------------|----------------------|

   Gm         Dm7       Gm         Dm7          Gm       Dm7    Gm         Dm7
E|-----------------3--|---------------------3-|-5-4-5---------|-3--------------|
B|-3-----5------3-----|-3-----5------3--5-6---|---------------|----------------|
G|------------5-------|------------5----------|----------5-3--|-------5--------|
D|--------------------|-----------------------|---------------|----------------|
A|--------------------|-----------------------|---------------|----------------|
E|--------------------|-----------------------|---------------|----------------|

   Gm7        Dm7        Gm       Dm7    Gm            Dm7
E|---------------------|---------------|-------------------------|
B|-4-----------------1-|-3-------------|-------------------------|
G|------3-2------2-3---|---------------|-------5--------3-2-0----|
D|----------3--5-------|-----5----5----|-----------------------3-|
A|---------------------|---------------|-3----------3------------|
E|---------------------|---------------|-------------------------|

   Gm        Dm7      Gm          Dm7         Gm         Dm7   Gm   Dm7
E|------------------|-----------------------|----------------|----------|
B|------------------|-----------------------|----------------|----------|
G|------5-----0-2-3-|-------5------3-2-0----|-------2--------|----------|
D|------------------|---------------------3-|------------3-5-|----------|
A|-3----------------|-3---------3-----------|-3--------------|-5----(5)-|
E|------------------|-----------------------|----------------|----------|

   Gm      Dm7     Gm     Dm7
E|---------------|-----------|
B|---------------|-----------|
G|---------------|-----------|   Play Intro for umpteen bars while 
D|---------------|-----------|   Dave`s drummer (Joe Morello) plays his solo 
A|-(5)-----(5)---|-(5)-------|   then repeat from start......
E|---------------|-----------|

An F. K. Tab,,,,Enjoy!!!!!!
 Comments (click here to add a non-facebook comment)
Love Dave Brubeck's stuff. Excellent. KK.
-kraziekhat | 7/20/2013
Home | FAQs | Privacy | Terms | Contact
Top 100 Tab Sites