Give Kudos?
Are you sure you want to give kudos to aussief?

Add To Songbook?
Are you sure you want to add this song to your songbook?


3,408 bands | 16,378 songs
Search: Register FREE! | Login
Browse Songs:
Browse Bands:
Tool Panel
Discuss This Song

1 2 3 4 5





Danny O` Keefe - Good Time Charlie`s Got The Blues (Tab)
Submitter: aussief (136) on 1/23/13 1 comment
Month Views: 27 | Total Views: 2,559
Help! We need a moderator for this artist. | Report This Song?
Song Tools

Comment

Songbook

Kudos

Show Chords

Print

  Words and Music by Danny O`Keefe

This song has been covered by Willie, Elvis and countless others
Danny O`keefe released the original in about `71 or `72

INTRO
   G
E|-----------------|--------------------|--------------------|
B|-----------------|--------------------|--------------------|
G|-----------------|--------------------|--------------------|
D|-4--2--0-------0-|----4--2--0-------0-|----4--2--0-------0-|
A|---------2-h-3---|------------2-h-3---|------------2-h-3---|
E|-----------------|-3------------------|-3------------------|

   G
E|--------------------|---------|
B|--------------------|---------|
G|--------------------|---------|
D|----4--2--0-------0-|---------|
A|------------2-h-3---|---------|
E|-3------------------|-3-------|

G
Everybody's goin' away
                        C6   C
Said they're movin' to LA
C7                         D7
There's not a soul I know around
                     G
Everybody's leavin' town

G
Some caught a freight, some caught a plane
                              C6   C
Find the sunshine, leave the rain
C7                               D7
They said this town's a waste of time
                                    G
I guess they're right, it's wastin' mine


G                           C6   C
Some gotta win, some gotta lose
D7                           G
Good time Charlie's got the blues
D7                           G
Good time Charlie's got the blues

SOLO
   G                D7         D9                     G
E|----------------|----------|----------------------|----------|
B|---3-5-3--------|--------3-|-5-3-5-3---3----------|----------|
G|---------4-2----|----------|---------4----4-2---2-|----------|
D|--------------5-|-4--------|------------------5---|-5--------|
A|----------------|----------|----------------------|----------|
E|----------------|----------|----------------------|----------|

G
Ya know my heart keeps tellin' me
                              C6    C
"You're not a kid at thirty-three"
C7                             D7
"Ya play around, ya lose your wife"
                                  G
"Ya play too long, you lose your life"


G
I got my pills to ease the pain
                                C6   C
Can't find a thing to ease the rain
C7                          D7
I'd love to try and settle down
                         G
But everybody's leavin' town

G                          C7    C6 C
Some gotta win, some gotta lose
D7                           G
Good time Charlie's got the blues
D7                           G
Good time Charlie's got the blues
D7                           G
Good time Charlie's got the blues  

(REPEAT INTRO AND FADE)

An F. K. Tab,,,Enjoy!!!!!!
 Comments (click here to add a non-facebook comment)
Nice job. KK.
-kraziekhat | 1/24/2013
Home | FAQs | Privacy | Terms | Contact
Top 100 Tab Sites