Give Kudos?
Are you sure you want to give kudos to aussief?

Add To Songbook?
Are you sure you want to add this song to your songbook?


3,412 bands | 16,395 songs
Search: Register FREE! | Login
Browse Songs:
Browse Bands:
Tool Panel
Discuss This Song

1 2 3 4 5





Creedence Clearwater Revival - Who`ll Stop The Rain ( With Intro) (Tab)
Album: Creedence Clearwater Revival (1968)
Submitter: aussief (67) on 6/9/15 1 comment
Month Views: 5 | Total Views: 976
Moderator: bigrig1999 | Report This Song?
Song Tools

Comment

Songbook

Kudos

Show Chords

Print

   Words and Music by John Fogerty

INTRO
   G                                        D/F# Em
E|----------3-------------|----------3---------|-----------3------------|
B|----0-----0----0--0--0--|----0-----0---0--3--|----0------0----0--0--0-|
G|----0--0-------0--0--0--|----0--0------0--2--|----0--0--------0--0--0-|
D|-0-----0-------0--0--0--|-0-----0------0--0--|-2-----2--------2--2--2-|
A|-2----------------------|-2---------------0--|-2----------------------|
E|-3----------------------|-3---------------2--|-0----------------------|

                    D/F# G
E|----------3----------|------------3-------------|----------3-------------|
B|----0-----0----0--3--|-----0------0----0--0--0--|----0-----0----0--0--0--|
G|----0--0-------0--2--|-----0--0--------0--0--0--|----0--0-------0--0--0--|
D|-2-----2-------2--0--|-0------0--------0--0--0--|-0-----0-------0--0--0--|
A|-2----------------0--|-2------------------------|-2----------------------|
E|-0----------------2--|-3------------------------|-3----------------------|

G                       C                G
Long as I remember the rain been comin' down
  G                         C                G
 Clouds of mystery pourin' confusion on the ground.
  C                    G     C                G
 Good men through the ages tryin' to find the sun.
  C            D              Em               G
 And I wonder still I wonder who'll stop the rain.

G                     C                        G
I went down Virginia seekin' shelter from the storm
  G                 Bm            C          G
 Caught up in the fable I watched the tower grow
  C                       G     C                 G
 Five year plans and new deals wrapped in golden chains.
  C            D              Em              G
 And I wonder still I wonder who'll stop the rain.

(GUITAR BREAK)

G                           C                  G
Heard the singers playin', how we cheered for more.
   G                      Bm     C              G
 The crowd had rushed together tryin' to keep warm.
  C                    G       C             G
 Still the rain kept pourin', fallin' on my ears
  C             D              Em              G
 And I wonder, still I wonder who'll stop the rain.

  (REPEAT INTRO AND FADE)
An F. K. Tab,,,,Enjoy!!!!!!
 Comments (click here to add a non-facebook comment)
Great job!!!!! KK.
-kraziekhat | 6/9/2015
Home | FAQs | Privacy | Terms | Contact
Top 100 Tab Sites