Give Kudos?
Are you sure you want to give kudos to aussief?

Add To Songbook?
Are you sure you want to add this song to your songbook?


3,025 bands | 13,466 songs
Search: Register FREE! | Login
Browse Songs:
Browse Bands:
Tool Panel
Discuss This Song

1 2 3 4 5





Creedence Clearwater Revival - Run Through The Jungle (Tab)
Submitter: aussief (7) on 11/29/11 2 comments
Month Views: 424 | Total Views: 15,344
Moderator: bigrig1999 | Report This Song?
Song Tools

Comment

Songbook

Kudos

Show Chords

Print

   Words and Music by John Fogerty

  (There is only one Chord in this classic but the riff is played throughout the song)

Intro
   Cm
E|---------------|-------------|---------------|------------|-----------|
B|---------------|-------------|---------------|------------|-----------|
G|-------5--3--3-|-5---5-------|-------5--3--3-|-5---5------|-----------|
D|----5----------|-------5-3---|----5----------|-------5-3--|-----------|
A|-3-------------|-----------6-|-3-------------|-----------6|-3---------|
E|---------------|-------------|---------------|------------|-----------|
                                                              Whoa,
  Riff
E|---------------|
B|---------------|
G|-3-5-----------|
D|-----5--3------|
A|----------6--3-|
E|---------------|

Cm                                                            
Whoa, thought it was a nightmare,
Lo it's all so true, 
They told me ,"Don't go 
walkin' slow
Devils on the loose."

(CHORUS)
Better run through the jungle,
Better run through the jungle,
Better run through the jungle,
Woa Dont look back to see

Thought I heard a rumblin'
Callin to my name ,Two hundred million 
guns are loaded
Satan cries, "Take aim!"

(CHORUS)
Better run through the jungle,
Better run through the jungle,
Better run through the jungle,
Woaa Don't look back to see

Over on the mountian' Thunder.. 
Magic spoke,
"Let the people know my wisdom,Fill the 
land with smoke."

(CHORUS)
Better run through the jungle,
Better run through the jungle,
Better run through the jungle,
Woaa dont look back to see.

An F. K. Tab,,,, Enjoy!!!!!
 Comments (click here to add a non-facebook comment)
Good job. KK.
-kraziekhat | 11/29/2011
Great song, thanks
-bdog56 | 10/26/2012
Home | FAQs | Privacy | Terms | Contact
Top 100 Tab Sites