Give Kudos?
Are you sure you want to give kudos to aussief?

Add To Songbook?
Are you sure you want to add this song to your songbook?


3,412 bands | 16,395 songs
Search: Register FREE! | Login
Browse Songs:
Browse Bands:
Tool Panel
Discuss This Song

1 2 3 4 5





Creedence Clearwater Revival - Long As I Can See The Light (Tab)
Submitter: aussief (67) on 12/11/11 1 comment
Month Views: 6 | Total Views: 6,644
Moderator: bigrig1999 | Report This Song?
Song Tools

Comment

Songbook

Kudos

Show Chords

Print

Words and Music by John Fogerty

E|-------------------------|-------------------------|-------------------------|
B|-------------------------|-------------------------|-------------------------|
G|------------------2----2-|-0----------------2----2-|-0----------------2----2-|
D|------------------3----3-|-2----------------3----3-|-2----------------3----3-|
A|-3--3--3--3--3--3----3---|-3--3--3--3--3--3----3---|-3--3--3--3--3--3----3---|
E|-------------------------|-------------------------|-------------------------|

E|-------------------------|
B|-------------------------|
G|-0-----------------------|
D|-2-----------------------|
A|-3--3--3--3---3--3--3--3-|
E|-------------------------|

C      G             C      Dm7  Em7  C
Put a candle in the window, 
C        Am               C      G   C  
'cause I feel I've got to move.
C           G7     F
Though I'm going, going, I'll be coming home soon,
C        G              C      Dm7  Em7
'Long as I can see the light.

C        G                        Dm7  Em7  C
Pack my bag and let's get movin',
C          Am                C      G C
'cause I'm bound to drift a while.
C        G7     F
When I'm gone, gone, you don't have to worry long,
C        G              C     Dm7  Em7  C
'Long as I can see the light.

C           G                      C    Dm7  Em7  C
Guess I've got that old trav'lin' bone,
C            Am                     C      G  C 
'cause this feelin' won't leave me alone.
C      G7     F
But I won't, won't be losin' my way, no, no
C        G              C
'Long as I can see the light.
C     Dm7 Em7 C
Yeah!
C     Dm7 Em7 C 
Yeah! 
C     Dm7 Em7 C
Yeah! 
    C      Dm7 Em7 C
Oh, Yeah!
C      G             C      Dm7  Em7  C
Put a candle in the window, 
C        Am                C     G  C
'cause I feel I've got to move.
C           G7     F                            C
Though I'm going, going, I'll be coming home soon,
C       G              C
Long as I can see the light.
C       G              C
Long as I can see the light.
C       G              C
Long as I can see the light.
C       G              C
Long as I can see the light.
C       G              C
Long as I can see the light.

An F. K. Tab,,,, Enjoy!!!!!!!

 Comments (click here to add a non-facebook comment)
Nice job. KK.
-kraziekhat | 12/11/2011
Home | FAQs | Privacy | Terms | Contact
Top 100 Tab Sites