Give Kudos?
Are you sure you want to give kudos to aussief?

Add To Songbook?
Are you sure you want to add this song to your songbook?


3,414 bands | 16,404 songs
Search: Register FREE! | Login
Browse Songs:
Browse Bands:
Tool Panel
Discuss This Song

1 2 3 4 5





Creedence Clearwater Revival - I Put A Spell On You (Tab)
Album: Creedence Clearwater Revival (1968)
Submitter: aussief (98) on 3/13/09
Month Views: 48 | Total Views: 5,594
Moderator: bigrig1999 | Report This Song?
Song Tools

Comment

Songbook

Kudos

Show Chords

Print

INTRO (SLOWLY)

E|--------------1--3---------------------|-------------------------|
B|----1--3--4---------3--1---------3-----|-------------------------|
G|-3------------------------3--2---------|-3--2--0-----------------|
D|------------------------------------0--|---------1-----1---0-----|
A|---------------------------------------|-----------3-------------|
E|---------------------------------------|-------------------------|

         Gm          Bb   Eb7   D7            Gm       G7
I put a spell on you,          because you're mine 
              Gm                      G+    Gm7    Gm6
You'd better stop the things that you do
         D
I ain't lyin', no I ain't lyin', yeah!
              Gm                         G7
I just can't stand it, baby, for you're always runnin' around
         Cm        Ab    Cm                              Cm7
I can't stand it        the way you're always puttin' me down
         Gm           Bb   Eb7  D7            Gm     Bb    Eb7
I put a spell on you,          because you're mine

         Gm          Bb   Eb7  D7             Gm       G7
I put a spell on you,          because you're mine
              Gm                      G+   Gm7  Gm6
You'd better stop the things that you do
                   D
Lord knows I ain't lyin', said I ain't lyin'
              Gm                             G7
I just can't stand it, baby, the way you're always tryin' to put me down
              Cm      Ab     Cm            G7
I just can't stand it       the way you're always runnin' 'round
         Gm           Bb  Eb7  D7             Gm      Bb   Eb7
I put a spell on you,          because you're mine
D7             Gm      Bb   Eb7
Because you're mine

D7       Gm            Gm7       Eb7  D7
I put a spell on you, oh yeah
         Gm          Gm7  D7       Gm          Gm7   Eb7  D7
I put a spell on you,     I put a spell on you 

OUTRO 
    Gm                    Cm        Gm                   D7         G
E|-------------3-------3------1---3------------|-----------------2------|
B|-----1---3------3-------4----------3---1-----|-------3--1---------3---|
G|--3---------------------------------------3--|-0--3--------2------4---|
D|---------------------------------------------|--------------------5---|
A|---------------------------------------------|------------------------|
E|---------------------------------------------|------------------------|

 
 Comments (click here to add a non-facebook comment)
Home | FAQs | Privacy | Terms | Contact
Top 100 Tab Sites