Give Kudos?
Are you sure you want to give kudos to aussief?

Add To Songbook?
Are you sure you want to add this song to your songbook?


3,395 bands | 16,292 songs
Search: Register FREE! | Login
Browse Songs:
Browse Bands:
Tool Panel
Discuss This Song

1 2 3 4 5





Creedence Clearwater Revival - Down On The Corner ( With Intro) (Tab)
Submitter: aussief (130) on 8/12/13 1 comment
Month Views: 14 | Total Views: 12,919
Moderator: bigrig1999 | Report This Song?
Song Tools

Comment

Songbook

Kudos

Show Chords

Print

Songwriter: JOHN C. FOGERTY

INTRO

   (C)                (G)      (C)                         (G)     (C)
E|------------------|------------------|-----------------|------------------|
B|------------------|------------------|-----------------|------------------|
G|------------------|------------------|-----------------|------------------|
D|------------------|------------------|-----------------|------------------|
A|-3--------3--3----|-------2--3---3---|-3-------3--3----|-------2--3--3----|
E|----5--3--------5-|-3--3-------------|----5--3-------5-|-3--3-------------|

(GUITAR 2 ENTERS)

  FFFF   F  F  F   F     CCCC  C  C  C  C    CCCC  C  C  C  C    GGGGG  G  C C C
E|---------------------|-------------------|-------------------|----------------|
B|---------------------|-------------------|-------------------|----------------|
G|---------------------|-------------------|-------------------|----------------|
D|-3----------3---3----|---------2--5---5--|-------------------|----------------|
A|-----5---3---------5-|-3----3------------|-3----------3--3---|-------2--3---3-|
E|---------------------|-------------------|-----5---3--------5|-3--3-----------|

C                     G                C
Early in the evenin' just about supper time, 
C                               G           C
Over by the courthouse they're starting to unwind. 
F                        C
Four kids on the corner trying to bring you up. 
C                              G               C
Willy picks a tune out and he blows it on the harp. 

F            C       G          C
Down On The Corner, out in the street, 
               F            C
Willy and the Poorboys are playin'; 
         G                C
Bring a nickel; tap your feet. 

C                                     G            C
Rooster hits the washboard and people just got to smile, 
C                                G           C
Blinky, thumps the gut bass and solos for a while. 
F                             C
Poorboy twangs the rhythm out on his kalamazoo.
C                            G          C 
Willy goes into a dance and doubles on kazoo. 

F            C       G          C
Down On The Corner, out in the street, 
                F           C
Willy and the Poorboys are playin'; 
         G                C
Bring a nickel; tap your feet. 

(REPEAT INTRO)

F            C       G          C
Down On The Corner, out in the street, 
               F            C
Willy and the Poorboys are playin'; 
          G               C
Bring a nickel; tap your feet. 

C                       G            C
You don't need a penny just to hang around,
C                                      G              C 
But if you've got a nickel, won't you lay your money down?
F                   C 
Over on the corner there's a happy noise. 
C                               G               C
People come from all around to watch the magic boy. 

F            C      G           C
Down On The Corner, out in the street,
               F            C 
Willy and the Poorboys are playin'; 
         G                C
Bring a nickel; tap your feet. 

F            C       G          C
Down On The Corner, out in the street, 
                F           C
Willy and the Poorboys are playin'; 
         G                C
Bring a nickel; tap your feet. 

F            C       G          C
Down On The Corner, out in the street,
               F            C 
Willy and the Poorboys are playin'; 
         G                C
Bring a nickel; tap your feet.

An F. K. Tab,,,,Enjoy!!!!!!!!
 Comments (click here to add a non-facebook comment)
One of my fav. songs. Excellent!!! KK.
-kraziekhat | 8/13/2013
Home | FAQs | Privacy | Terms | Contact
Top 100 Tab Sites