Give Kudos?
Are you sure you want to give kudos to EMRLDEYZS?

Add To Songbook?
Are you sure you want to add this song to your songbook?


3,420 bands | 16,457 songs
Search: Register FREE! | Login
Browse Songs:
Browse Bands:
Tool Panel
Discuss This Song

1 2 3 4 5



Creed - My Sacrafice (Intro)
Submitter: EMRLDEYZS (89) on 11/16/04
Month Views: 5 | Total Views: 3,926
Moderator: joz104 | Report This Song?
Song Tools

Comment

Songbook

Kudos

Show Chords

Print

Tuning-D A D A D D  

Intro
  
|---------0------------------|
|-----------0----------------|
|---4---------4--------------|
|-----4---------4-(4)--(x)---|
|-2-----2------------------0-|
|----------------------------|


                            
|-----------------------------------|-0-0-0-0-0--(0)-----0-|
|----------0-(0)-0------------------|-0-0-0-0-0--(0)-----0-|
|-------12---------12-----------0-0-|-5-4-4-5-5--(5)-----5-|
|----12---------------12-(12)---0-0-|-0-0-0-0-0--(0)---0-0-|
|-10----------------------------0-0-|-5-4-4-5-5--(5)---5-5-|
|-------------------------------0-0-|-0-0-0-0-0--(0)---0-0-|


|-0-0-0-0-0--(0)-0-----------|---------0---------------|
|-0-0-0-0-0--(0)-0-----------|-----------0-------------|
|-5-4-4S9-9--(9)-9S10-(10)-0-|---0---------4-----------|
|-0-0-0-0-0--(0)-0---------0-|-----4---------4-(4)-----|
|-5-4-4S9-9--(9)-9S10-(10)-0-|-2-----2-----------------|
|-0-0-0-0-0--(0)-0---------0-|-----------------------0-|


|--------------------------------||
|----------0-(0)-0---------------||
|-------12---------12------------||
|----12---------------12-(12)----||
|-10-----------------------------||
|--------------------------------||
 Comments (click here to add a non-facebook comment)
Home | FAQs | Privacy | Terms | Contact
Top 100 Tab Sites