Give Kudos?
Are you sure you want to give kudos to flames_15?

Add To Songbook?
Are you sure you want to add this song to your songbook?


3,423 bands | 16,458 songs
Search: Register FREE! | Login
Browse Songs:
Browse Bands:
Tool Panel
Discuss This Song

1 2 3 4 5



Cranberries - Just My Imagination2 (Tab)
Submitter: flames_15 (1) on 2/6/05
Month Views: 7 | Total Views: 2,104
Help! We need a moderator for this artist. | Report This Song?
Song Tools

Comment

Songbook

Kudos

Show Chords

Print

>>> CHORD PROGRESSION:

   1    2    3     4
   Bb   F    Cm    Gm  F

It's played by the rythm guitar throughout the song.
Bb


>>> MAIN TAB:

It's played frequently in the background but mainly
1 time after the 1st chorus and
2 times after the 2nd chorus

(the rythm shown below isn't absolutly correct cuz I'm not a =
music-master
but by listening to the song you'll find out the right timing)

h = hammer on

   Bb               F                Cm               Gm      F=20
e |----------------|-1-1-11-1-13-1--|----------------|----------------|  =
B |-------------3--|----------------|-3h4-4-44-4-46-4|----------------|  =
G |-3-3-33-3-35----|----------------|----------------|-6h7-7-75-5-57-5|  =
  |----------------|----------------|----------------|----------------|    =
  |----------------|----------------|----------------|----------------|    =
  |----------------|----------------|----------------|----------------| =20


Thats about it folks. Enjoy it!














#----------------------------------PLEASE=20
NOTE---------------------------------##This file is the author's own =
work=20
and represents their interpretation of the ##song. You may only use =
this=20
file for private study, scholarship, or research.=20
##-------------------------------------------------------------------=
-----------#
 
Tabulature of "Just My =
Imagination" 
Cranberries (album: bury the hatched)Tabbed by Manuel Mayer (South =

 
 
>>> CHORD=20
PROGRESSION:
 
   =
1   =20
2    3     4   =
Bb  =20
F    Cm    Gm  F 
 
It's played by the rythm guitar =
throughout=20
the song.Bb =3D 
 
>>> MAIN=20
TAB:
 
It's played frequently in the =
background=20
but mainly1 time after the 1st chorus and2 times after the 2nd=20
chorus
 
(the rythm shown below isn't =
absolutly=20
correct cuz I'm not a music-masterbut by listening to the song =
you'll find=20
out the right timing)
 
h =3D hammer on
 
  =20
Bb            =
; =20
 F            =
 =20
  Cm       =20
       Gm     =20
F e=20
|----------------|-1-1-11-1-13-1--|----------------|----------------|&nbs=
p;  =20
B=20
|-------------3--|----------------|-3h4-4-44-4-46-4|----------------|&nbs=
p;  =20
G=20
|-3-3-33-3-35----|----------------|----------------|-6h7-7-75-5-57-5|&nbs=
p;            =
;            =
  =20
D=20
|----------------|----------------|----------------|----------------|&nbs=
p;            =
;            =
  =20
A=20
|----------------|----------------|----------------|----------------|&nbs=
p;            =
;            =
  =20
E =
|----------------|----------------|----------------|----------------|&nbs=
p;=20

 
>>>=20
LYRICS:
 
There was a game we used to =
playWe=20
would hit the town on Friday nightAnd stay in bed until SundayWe =
used to=20
be so freeWe were living for the love we had andLiving not for=20
reality
 
It was just my imagination=20
[...]
 
There was a time I used to =
prayI have=20
always kept my faith in loveIt's the greatest thing from the man=20
aboveThe game I used to playI've always put my cards upon the=20
tableLet it never be said that I'd be unstable
 
It was just my imagination=20
[...]
 
There is a game I like to =
playI like to=20
hit the town at Friday nightAnd stay in bed until SundayWe'll =
always be=20
this freeWe will be living for the love we haveLiving not for=20
reality
 
It's not my imagination =

 
Not my, not my, =
[...]
 
Thats about it folks. =
Enjoy=20
it!
 
Any corrections, comments, =

 
 Comments (click here to add a non-facebook comment)
Home | FAQs | Privacy | Terms | Contact
Top 100 Tab Sites