Give Kudos?
Are you sure you want to give kudos to eric_steinmetz?

Add To Songbook?
Are you sure you want to add this song to your songbook?


3,423 bands | 16,458 songs
Search: Register FREE! | Login
Browse Songs:
Browse Bands:
Tool Panel
Discuss This Song

1 2 3 4 5



Cranberries - Dreams (Tab)
Submitter: eric_steinmetz (21) on 10/2/03
Month Views: 10 | Total Views: 2,590
Help! We need a moderator for this artist. | Report This Song?
Song Tools

Comment

Songbook

Kudos

Show Chords

Print

Dreams- Cranberries by O'Rierdon
-tremelo/echo/chorus   

Intro
Guitar I (electric - tremelo/chorus/echo effect)
Chord progression : E A/A~ B/B~ E 
   
   E E E            A A A or A~'s    B B B or B~'s    E E E           E  E
e|-0-0-0------------0-0-0------------2-2-2------------0-0-0-----------0--0-|
B|-0-0-0------------2-2-2------------4-4-4------------0-0-0-----------0--0-|r
G|-1-1-1------------2-2-2------------4-4-4------------1-1-1-----------1--1-|e
D|-2-2-2------------2-2-2------------4-4-4------------2-2-2-----------2--2-|s
A|-2-2-2------------0-0-0------------2-2-2------------2-2-2-----------2--2-|t
E|-0-0-0----------------------------------------------0-0-0-----------0--0-|

Guitar II  Note progression : G# G# F# G#
e|-------------------------------------------------------------------------|
B|-------------------------------------------------------------------------|r
G|-------------------------------------------------------------------------|e
D|-----6~---------------6~-------------6\4~-------------4/6~---------------|s
A|-------------------------------------------------------------------------|t
E|-------------------------------------------------------------------------|

Guitar I Riff A
e|------------------------------------------------------------------|
B|----0-----0-----0---0-----0-----0---0-----0-----0---0-----0-----0-|
G|------1-----1---------1-----1---------1-----1---------1-----1-----| 
D|-(2)---(2)---(2)-------(2)---(2)----------------------------------|   
A|---------------------------------(0)---(0)---(0)-------(0)---(0)--|   
E|------------------------------------------------------------------|   

Riff A - continues                                                                      
e|------------------------------------------------------------------|v 
B|----0-----0-----0---0-----0-----0---0-----0-----0---0-----0-----0-|o n  
G|------2-----2---------2-----2---------1-----1---------1-----1-----|c e  
D|---------------------------------(2)---(2)---(2)-------(2)---(2)--|a x 
A|-(2)---(2)---(2)-------(2)---(2)----------------------------------|l t
E|------------------------------------------------------------------|s



E      A/A~                  B/B~
 Oh my life is changing everyday
               E
every possible way
E          A/A~                           B/B~
 though my dreams, it's never quite as it seems
                  E
never quite as it seems


(Guitar I - picking off Riff A)
E                          A/A~
 I know I felt like this before
                            B/B~
but now I'm feeling it even more
                     E
because it came from you


(Guitar I,II - chord strums with slight picking)
E                   A/A~
 Then I open up and see
                            B/B~
the person fumbling here is me
                   E
a different way to be


[Chanting]
Chords : G C G C
(Guitar I - play single chord strums with tremelo effect)


(Guitar I,II - chord strums with slight picking)
I want more, impossible to ignore
impossible to ignore
they'll come true, impossible not to do
impossible not to do

(Guitar I - picking of Riff A)
Now I tell you openly
you have my heart so don't hurt me
for what I couldn't find

Talk to me amazing mind
so understanding and so kind
you're everything to me

Oh my life is changing everyday
every possible way
though my dreams, it's never quite as it seems
'cause you're a dream to me
dream to me

Coda
 Comments (click here to add a non-facebook comment)
Home | FAQs | Privacy | Terms | Contact
Top 100 Tab Sites